Song name
# A B C D E F G H I J K L M N O P Q R S T U V W X Y Z

The Explosion - Go Blank tab

-------------------------------------------------------------------------------
			     Go Blank - The Explosion
-------------------------------------------------------------------------------
Tabbed by: bloodred16
Email: happytreefriends_firstblood@hotmail.com

Tuning: Drop D (DADGBe)

Intro
Gtr.2 comes in after Rhy. Fig. 1 (x4)
  |-Rhy. Fig. 1--|(x8)(Gtr.1) |-Rhy. Fig. 1A-|(x4)(Gtr.2)
e|---------------------------------------------------------------------------|
B|---------------------------------------------------------------------------|
G|---------------------------------------------------------------------------|
D|----------------------------0--2-2--2-2-2-2--------------------------------|
A|0--2-2--x-x-x-x-------------0--2-2--2-2-2-2--------------------------------|
D|0--2-2--x-x-x-x-------------0--2-2--2-2-2-2--------------------------------|

"Go blank..."                                    "This time it feels..."
  |--------Rhy. Fig. 2--------|(x8)(Gtr.1 & 2)   Rhy. Fig. 3
e|---------------------------------------------------------------------------|
B|---------------------------------------------------------------------------|
G|---------------------------------------------------------------------------|
D|0--2--2-2-2-2-2-2-2-2-2-2-2-2----------------------------------------------|
A|0--2--2-2-2-2-2-2-2-2-2-2-2-2------------------0--5--5-5-5-5--0--7--7-7-7-7|
D|0--2--2-2-2-2-2-2-2-2-2-2-2-2------------------0--5--5-5-5-5--0--7--7-7-7-7|

             End Rhy. Fig. 3 (x3)(Gtr.1 & 2)  Rhy. Fill. 1
e|---------------------------------------------------------------------------|
B|---------------------------------------------------------------------------|
G|---------------------------------------------------------------------------|
D|---------------------------------------------------------------------------|
A|0--3--3-3-3-3--0-2-2-0-2-2------------------0--5--5-5-5-5--0--7--7-7-7-7---|
D|0--3--3-3-3-3--0-2-2-0-2-2------------------0--5--5-5-5-5--0--7--7-7-7-7---|

                             End Rhy. Fill.1 (Gtr. 1 & 2)
e|---------------------------------------------------------------------------|
B|---------------------------------------------------------------------------|
G|---------------------------------------------------------------------------|
D|---------------------------------------------------------------------------|
A|0--10--10-10-10-10-10-10-10-10-10-10-10-10---------------------------------|
D|0--10--10-10-10-10-10-10-10-10-10-10-10-10---------------------------------|

"Go blank..."
Rhy. Fig. 2 (x8)(Gtr.1 & 2)

"Insecurity takes it's toil on me..."
Rhy. Fig. 3 (x3)(Gtr.1 & 2)
Rhy. Fill. 1 (Gtr.1 & 2)

"Go blank..."
Rhy. Fig. 2 (x8)(Gtr.1 & 2)

Interlude
  Riff A                                                   End Riff A (x2)(Gtr.1)
e|---------------------------------------------------------------------------|
B|---8---8---8---8----7---7---7---7----3---3---3---3----5---5---5---5--------|
G|---------------------------------------------------------------------------|
D|55---5---5---5---55---5---5---5---55---5---5---5---55---5---5---5----------|
A|---------------------------------------------------------------------------|
D|---------------------------------------------------------------------------|

Play Rhy. Fill. 2 in time with Riff A
  Rhy. Fill. 2                                       End Rhy. Fill. 2 (x2)(Gtr.2)
e|---------------------------------------------------------------------------|
B|---------------------------------------------------------------------------|
G|---------------------------------------------------------------------------|
D|5----------------7----------------4----------------2-----------------------|
A|5----------------7----------------4----------------2-----------------------|
D|5----------------7----------------4----------------2-----------------------|

Riff B & Rhy. Fill. 3 played together.
  |----Riff B-----|(x2)(Gtr.1)    |Rhy. Fill. 3|(x2)(Gtr.2)
e|---------------------------------------------------------------------------|
B|---------------------------------------------------------------------------|
G|---------------------------------------------------------------------------|
D|---9-----7-----6----------------9-----7-----2------------------------------|
A|--------------------------------9-----7-----2------------------------------|
D|9-----7-----2-------------------9-----7-----2------------------------------|

Repeat Intro

"A mess is made again..."
Rhy. Fig. 3 (x3)(Gtr.1 & 2)
Rhy. Fill. 1 (Gtr.1 & 2)

"Go Blank..."
Rhy. Fig. 2 (x16)(Gtr.1 & 2)

After Gtr.1 plays that 8 times it starts playing this
  Rhy. Fig. 4
e|---------------------------------------------------------------------------|
B|---------------------------------------------------------------------------|
G|7--7--7-7-7-7-7-7-7-7-7-7-7-7--9--9--9-9-9-9-9-9-9-9-9-9-9-9--12--12--12-12|
D|x--x--x-x-x-x-x-x-x-x-x-x-x-x--x--x--x-x-x-x-x-x-x-x-x-x-x-x---x---x---x--x|
A|5--5--5-5-5-5-5-5-5-5-5-5-5-5--7--7--7-7-7-7-7-7-7-7-7-7-7-7--10--10--10-10|
D|---------------------------------------------------------------------------|

                                                End Rhy. Fig.4 (x2)(Gtr.1)
e|---------------------------------------------------------------------------|
B|---------------------------------------------------------------------------|
G|12-12-12-12-12-12-12-12-12-12--9--9--9-9-9-9-9-9-9-9-9-9-9-9---------------|
D|-x--x--x--x--x--x--x--x--x--x--x--x--x-x-x-x-x-x-x-x-x-x-x-x---------------|
A|10-10-10-10-10-10-10-10-10-10--7--7--7-7-7-7-7-7-7-7-7-7-7-7---------------|
D|---------------------------------------------------------------------------|

Ending
 (Gtr.2)  
e|---------------------------------------------------------------------------|
B|---------------------------------------------------------------------------|
G|---------------------------------------------------------------------------|
D|---------------------------------------------------------------------------|
A|0--2-----------------------------------------------------------------------|
D|0--2-(x4)------------------------------------------------------------------|

| x  Mute note
===============================================================================
Tap to rate this tab
# A B C D E F G H I J K L M N O P Q R S T U V W X Y Z