Song name
# A B C D E F G H I J K L M N O P Q R S T U V W X Y Z

The Explosion - True Or False tab

Author/Artist: The Explosion
Title: True or False
Album: Flash, Flash, Flash
Copied from different website without permission

|----------------------------------------------------|
|-10-10-10101010--10-10-10101010---------------------|
|--9--9--9-9-9-9---9--9--9-9-9-9--6-6-6666--6-6-6666-|
|--7--7--7-7-7-7---7--7--7-7-7-7--6-6-6666--6-6-6666-| x3
|---------------------------------4-4-4444--4-4-4444-|
|----------------------------------------------------|
Intro 

|----------------------------------|
|----------------------------------|
|-7-77-77-77-77-7--9-99-99-99-99-9-|
|-7-77-77-77-77-7--9-99-99-99-99-9-|
|-5-55-55-55-55-5--7-77-77-77-77-7-|
|----------------------------------|


|----------------|
|-9*-------------|
|-9*-------------|
|-9*--9*--7*--7*-| x4
|-7*--9*--7*--7*-|
|-----7*--5*--5*-|
Verse (I don't know the strum pattern, so just listen or make one up.) 

|------------------------------------|------|------|
|-9*---------------------9*----------|------|-9--9-|
|-9*---------------------9*----------|------|-9--9-|
|-9*--7*--9*--9*-----7*--9*--9*---9*-|--x2--|-9--9-|
|-7*--7*--9*--9*-----7*--7*--9*---9*-|------|-7--7-|
|-----5*--7*--7*-----5*------7*---7*-|------|------|
Chorus 

|----------------|
|-9*-------------|
|-9*-------------|
|-9*--9*--7*--7*-| x4
|-7*--9*--7*--7*-|
|-----7*--5*--5*-|
Verse 

|-----------------------------------------|
|-----------------------------------------|
|------------------6-66-66-66-66-6--------|
|-7-77-77-77-77-7--6-66-66-66-66-6------2-|
|-7-77-77-77-77-7--4-44-44-44-44-4------2-|
|-5-55-55-55-55-5-----------------------0-|
Bridge 

|------------------------------------------------------|
|-99-9--------------------99-9-------------------------|
|-99-9--------------------99-9-------------------------|
|-99-9--99-9--77-7--22-2--99-9--99-9--7777777777777777-|
|-77-7--99-9--77-7--22-2--77-7--99-9--7777777777777777-|
|-------77-7--55-5--00-0--------77-7--5555555555555555-|
Another bridge 

|----------------|
|-9*-------------|
|-9*-------------|
|-9*--9*--7*--7*-| x4
|-7*--9*--7*--7*-|
|-----7*--5*--5*-|
Verse 

|-----|
|--9--|
|--9--|
|--9--|
|--7--|
|-----|
End on this

To give credit for this tab, I found it on a different sight, and it looked cool.
Tap to rate this tab
 
# A B C D E F G H I J K L M N O P Q R S T U V W X Y Z