Song name
# A B C D E F G H I J K L M N O P Q R S T U V W X Y Z

The Eyeliners - I Could Never Hate You tab

http://www.theeyeliners.com/

Intro

Guitar One
E ----------------------------------------------------------------|
B ----------------------------------------------------------------|
G ---8--8/10/8--7--8----8/10/8--7--8----8/10/8--7-----------------|
D --------------------------------------------------8-------------|
A ----------------------------------------------------------------|
E ----------------------------------------------------------------|

E ----------------------------------------------------------------|
B ----------------------------------------------------------------|
G ---7--8/10--8--7------------------------------------------------|
D ----------------------------------------------------------------|
A ----------------------------------------------------------------|
E ----------------------------------------------------------------|

E ----------------------------------------------------------------|
B ----------------------------------------------------------------|
G ---8--8/10/8--7--8----8/10/8--7--8----8/10/8--7-----------------|
D ----------------------------------------------------------------|
A ----------------------------------------------------------------|
E ----------------------------------------------------------------|

E ----------------------------------------------------------------|
B ----------------------------------------------------------------|
G ---12--10--8--10--8---------------------------------------------|
D ----------------------------------------------------------------|
A ----------------------------------------------------------------|
E ----------------------------------------------------------------|

Guitar Two
E ----------------------------------------------------------------|
B ----------------------------------------------------------------|
G ---8-8-8-8------------------------------------------------------|
D ---8-8-8-8--6-6-6-6--10-10-10-10--8-8-8-8-----------------------|
A ---6-6-6-6--6-6-6-6--10-10-10-10--8-8-8-8-----------------------|
E ------------4-4-4-4--8--8--8--8---6-6-6-6-----------------------| x 2

Verse

Guitar One
E ----------------------------------------------------------------|
B ----------------------------------------------------------------|
G ---8-8-8-8------------------------------------------------------|
D ---8-8-8-8--6-6-6-6--10-10-10-10--8-8-8-8-----------------------|
A ---6-6-6-6--6-6-6-6--10-10-10-10--8-8-8-8-----------------------|
E ------------4-4-4-4--8--8--8--8---6-6-6-6-----------------------| x 2

Pre Chorus

Guitar One
E ----------------------------------------------------------------|
B ----------------------------------------------------------------|
G ---------------------8-8--7-7-----------------------------------|
D ---6-6-6-6--8-8-8-8--8-8--7-7--10-10--8-8--6-6-6-6--8-----------|
A ---6-6-6-6--8-8-8-8--6-6--5-5--10-10--8-8--6-6-6-6--8-----------|
E ---4-4-4-4--6-6-6-6------------8--8---6-6--4-4-4-4--6-----------|

Chorus

Guitar One
E ----------------------------------------------------------------|
B ----------------------------------------------------------------|
G ---8-8----------------------------------------------------------|
D ---8-8--8-8--6-6--8-8-------------------------------------------|
A ---6-6--8-8--6-6--8-8-------------------------------------------|
E --------6-6--4-4--6-6-------------------------------------------| x 4

Bridge

Guitar One
E -----------------------------------------------------------------|
B -----------------------------------------------------------------|
G ---7--8/10/8--7--8-----12--10--8--7--8/10/8--7-------------------|
D ----------------------6------------------------------------------|
A -----------------------------------------------------------------|
E -----------------------------------------------------------------|

Guitar Two
E ----------------------------------------------------------------|
B ----------------------------------------------------------------|
G ---8-8-8-8------------------------------------------------------|
D ---8-8-8-8--6-6-6-6--10-10-10-10--8-8-8-8-----------------------|
A ---6-6-6-6--6-6-6-6--10-10-10-10--8-8-8-8-----------------------|
E ------------4-4-4-4--8--8--8--8---6-6-6-6-----------------------|

Ending

E ----------------------------------------------------------------|
B ----------------------------------------------------------------|
G ---8------------------------------------------------------------|
D ---8------------------------------------------------------------|
A ---6------------------------------------------------------------|
E ----------------------------------------------------------------|
Tap to rate this tab
# A B C D E F G H I J K L M N O P Q R S T U V W X Y Z