Song name
# A B C D E F G H I J K L M N O P Q R S T U V W X Y Z

The Eyeliners - Here Comes Trouble tab

Intro/Verse
e|--------------------------|
B|--------------------------|
G|-------5---7---5------7---|
D|---5---5---7---5--5---7---|
A|---5---3---5---3--5---5---|
E|---3--------------3-------|

  Chorus
e|----------------------------|
B|----------------------------|
G|---5-------5---7------------|
D|---5---5---5---7------------|
A|---3---5---3---5------------|
E|-------3--------------------|

  During Solo
e|-------------------------------|
B|-------------------------------|
G|-------5---7---11--------------|
D|---5---5---7---11--5---7-------|
A|---5---3---5---9---5---7-------|
E|---3---------------3---5-------|

  Outro/End
e|-----------------------------------------------------|
B|-----------------------------------------------------|
G|-----5-----7--5--7--5--7--5-----7-----7-----7--------|
D|--5--5--5--7--5--7--5--7--5--5--7--5--7--5--7--5-----|
A|--5--3--5--5--3--5--3--5--3--5--5--5--5--5--5--5-----|
E|--3-----3--------------------3-----3-----3-----3-----|

please rate!
Tap to rate this tab
# A B C D E F G H I J K L M N O P Q R S T U V W X Y Z