Song name
# A B C D E F G H I J K L M N O P Q R S T U V W X Y Z

The F-ups - Falling Down tab

Played in drop a#

This is my first tab but im sure its pretty accurate.Ill get around to finishing it 
til then this is what i have.


-------------------------------|
-------------------------------|
-10-----9----------------------|
-x-(x5)-x-(x6)-7------5--------|
-8----- 7------3-(X5)-3 (x6)---|
---------------3------3--------|


-----------------------------|
-----------------------------|
-----------------------------|
-0-0-0---00-0-00-0-0-0-------|    (x4?)
-0-0-0---00-0-00-0-0-0-------|
-0-0-0-0-00-0-00-0-0-0-0-----|
 . . .   .. . .. . . .


The breakdown is after this and it follows the same basic type of rythm. Hope this helps.
Tap to rate this tab
 
# A B C D E F G H I J K L M N O P Q R S T U V W X Y Z