Song name
# A B C D E F G H I J K L M N O P Q R S T U V W X Y Z

The F-ups - Wrong The Right tab

most of the chords in this song are repeated a million times and i'm not gonna right out
every single one so instead i'll just put the chord down once and you can figure out how
many times to strum it.

Drop-C tuning (Drop-D only all the strings are one step down)

Intro
|---------------------------------|
|---------------------------------|
|-7~-----------7~-----------------|
|-7~-5~-7~-5-7-7~-5~-7~-5-4-0-5-4-|
|-5~-5~-7~-5-7-5~-5~-7~-5-4-0-5-4-|
|----5~-7~-5-7----5~-7~-5-4-0-5-4-|

Verse
|-------------------------|
|-------------------------|
|-7>-------7>-------------|
|-7>-5>-7>-7>-5>-7>-5>-7>-|
|-5>-5>-7>-5>-5>-7>-5>-7>-|
|----5>-7>----5>-7>-5>-7>-|

Pre-Chorus
|----------------------|
|----------------------|
|-------7>-------------|
|-9>-7>-7>-5>-7>-9>-7>-|
|-9>-7>-5>-5>-7>-9>-7>-|
|-9>-7>----5>-7>-9>-7>-|

Chorus
|--------------------------------|
|--------------------------------|
|-7>-------7>--------------------|
|-7>-5>-7>-7>-5>-7>-5-4-0-5-4----|
|-5>-5>-7>-5>-5>-7>-5-4-0-5-4----|
|----5>-7>----5>-7>-5-4-0-5-4----|

Bridge
|-----------------------------------------------|
|-----------------------------------------------|
|-7-7-7-7---------------------------------------| x3
|-7-7-7-7---5-5-5-5---7-7-7-7---5-5-5-5-7-7-7-7-|
|-5-5-5-5---5-5-5-5---7-7-7-7---5-5-5-5-7-7-7-7-|
|-----------5-5-5-5---7-7-7-7---5-5-5-5-7-7-7-7-|

|-----------------------------------------|
|-----------------------------------------|
|-7-7-7-7---------------------------------|
|-7-7-7-7---5-5-5-5---7-7-7-7---5-4-0-5-4-|
|-5-5-5-5---5-5-5-5---7-7-7-7---5-4-0-5-4-|
|-----------5-5-5-5---7-7-7-7---5-4-0-5-4-|

Song Order:
Intro
Verse
Pre-Chorus
Chorus
Verse
Pre-Chourus
Chorus
Bridge
Chorus
Chorus
Tap to rate this tab
 
# A B C D E F G H I J K L M N O P Q R S T U V W X Y Z