Song name
# A B C D E F G H I J K L M N O P Q R S T U V W X Y Z

The F-ups - Lazy Generation tab

I am tabbing this in standard in request for the guitar players that are new to this all

Band: The F-Ups
Song: Lazy Generation
Tuning: Standard


   We are the lazy generation no more standing out in
e|--------------------------------------------------------|
b|--------------------------------------------------------|
g|--------------------------------------------------------|
d|-4444444444444444444444444444444444444444444444444444---|
a|-4444444444444444444444444444444444444444444444444444---|
E|-2222222222222222222222222222222222222222222222222222---|

   line
e|--------------------------------------------------------|
b|--------------------------------------------------------|
g|-66666666666666-----------------------------------------|
d|-66666666666666-----------------------------------------|
a|-44444444444444-----------------------------------------|
E|--------------------------------------------------------|

   So good at wasting our time
e|--------------------------------------------------------|
b|--------------------------------------------------------|
g|--------------------------------------------------------|
d|--------------------------------------------------------|
a|--------------------------------------------------------|
E|--------------------------------------------------------|

   We are the lazy generation
e|--------------------------------------------------------|
b|--------------------------------------------------------|
g|--------------------------------------------------------|
d|-22222222222222222222222222-----------------------------|
a|-22222222222222222222222222-----------------------------|
E|-44444444444444444444444444-----------------------------|

   We are the lazy gneation
e|--------------------------------------------------------|
b|--------------------------------------------------------|
g|-666666666666666666666666-------------------------------|
d|-666666666666666666666666-------------------------------|
a|-444444444444444444444444-------------------------------|
E|--------------------------------------------------------|

   We are the lazy genoration
e|--------------------------------------------------------|
b|--------------------------------------------------------|
g|-66666666666666666666666666-----------------------------|
d|-66666666666666666666666666-----------------------------|
a|-44444444444444444444444444-----------------------------|
E|--------------------------------------------------------|

   Now
e|--------------------------------------------------------|
b|--------------------------------------------------------|
g|--------------------------------------------------------|
d|-22222222222222222222222222-----------------------------|
a|-22222222222222222222222222-----------------------------|
E|-44444444444444444444444444-----------------------------|

   We are the lazy generation
e|--------------------------------------------------------|
b|--------------------------------------------------------|
g|--------------------------------------------------------|
d|-22222222222222222222222222-----------------------------|
a|-22222222222222222222222222-----------------------------|
E|-44444444444444444444444444-----------------------------|

   We are the lazy gneation
e|--------------------------------------------------------|
b|--------------------------------------------------------|
g|-666666666666666666666666-------------------------------|
d|-666666666666666666666666-------------------------------|
a|-444444444444444444444444-------------------------------|
E|--------------------------------------------------------|

   We are the lazy genoration
e|--------------------------------------------------------|
b|--------------------------------------------------------|
g|-66666666666666666666666666-----------------------------|
d|-66666666666666666666666666-----------------------------|
a|-44444444444444444444444444-----------------------------|
E|--------------------------------------------------------|

   Now
e|--------------------------------------------------------|
b|--------------------------------------------------------|
g|--------------------------------------------------------|
d|-22222222222222222222222222-----------------------------|
a|-22222222222222222222222222-----------------------------|
E|-44444444444444444444444444-----------------------------|


   Stand   Up    And    Shout   We wont   Be there for
e|---------------------------------------------------------|
b|---------------------------------------------------------|
g|-4444----333---------------------------------------------|
d|-4444----444---666----4444----333333-----222222----------|
a|-2222----111---666----4444----444444-----222222----------|
E|---------------444----2222----111111-----000000----------|

   You!  Hey!  Hey! Hey!  Hey!  Hey!  Hey!  Lets go!
e|--------------------------------------------------------|
b|--------------------------------------------------------|
g|-6-----6~xx--6----6~xx--6-----6~xx--6------6-6----------|
d|-6-----6~xx--6----6~xx--6-----6~xx--6------6-6----------|
a|-4-----4~xx--4----4~xx--4-----4~xx--4------4-4----------|
E|--------------------------------------------------------|

   We are the lazy generation they call us social mutations
e|--------------------------------------------------------|
b|--------------------------------------------------------|
g|--------------------------------------------------------|
d|-4444444444444444444444444444444444444444444444444444---|
a|-4444444444444444444444444444444444444444444444444444---|
E|-2222222222222222222222222222222222222222222222222222---|

   Why?          You can just drop dead and
e|--------------------------------------------------------|
b|--------------------------------------------------------|
g|-6666666666666666666666666666666666666666---------------|
d|-6666666666666666666666666666666666666666---------------|
a|-4444444444444444444444444444444444444444---------------|
E|--------------------------------------------------------|

   Die. Nothing we do ever seems to matter just like crap on a silver platter
e|--------------------------------------------------------|
b|--------------------------------------------------------|
g|--------------------------------------------------------|
d|-4444444444444444444444444444444444444444444444444444---|
a|-4444444444444444444444444444444444444444444444444444---|
E|-2222222222222222222222222222222222222222222222222222---|

   Shines        Yeah you know just where we stand
e|--------------------------------------------------------|
b|--------------------------------------------------------|
g|-666666666666666666666666666666666666666666666666-------|
d|-666666666666666666666666666666666666666666666666-------|
a|-444444444444444444444444444444444444444444444444-------|
E|--------------------------------------------------------|

  Stand   Up    And    Shout   We wont   Be there for
e|---------------------------------------------------------|
b|---------------------------------------------------------|
g|-4444----333---------------------------------------------|
d|-4444----444---666----4444----333333-----222222----------|
a|-2222----111---666----4444----444444-----222222----------|
E|---------------444----2222----111111-----000000----------|

   You!  Hey!  Hey! Hey!  Hey!  Hey!  Hey!  
e|--------------------------------------------------------|
b|--------------------------------------------------------|
g|-6-----6~xx--6----6~xx--6-----6~xx--6-------------------|
d|-6-----6~xx--6----6~xx--6-----6~xx--6-------------------|
a|-4-----4~xx--4----4~xx--4-----4~xx--4-------------------|
E|--------------------------------------------------------|


   Lets go!
e|--------------------------------------------------------|
b|--------------------------------------------------------|
g|--------------------------------------------------------|
d|--------------------------------------------------------|
a|--------------------------------------------------------|
E|--------------------------------------------------------|

  Stand   Up    And    Shout   We wont   Be there for
e|---------------------------------------------------------|
b|---------------------------------------------------------|
g|-4444----333---222---------------------------------------|
d|-4444----444---222----4444----333333-----222222----------|
a|-2222----111---000----4444----444444-----222222----------|
E|----------------------2222----111111-----000000----------|

   You!  Hey!  Hey! Hey!  Hey!  Hey!  Hey!  Lets go!
e|--------------------------------------------------------|
b|--------------------------------------------------------|
g|-6-----6~xx--6----6~xx--6-----6~xx--6------6-6----------|
d|-6-----6~xx--6----6~xx--6-----6~xx--6------6-6----------|
a|-4-----4~xx--4----4~xx--4-----4~xx--4------4-4----------|
E|--------------------------------------------------------|

   We are the lazy generation
e|--------------------------------------------------------|
b|--------------------------------------------------------|
g|--------------------------------------------------------|
d|-22222222222222222222222222-----------------------------|
a|-22222222222222222222222222-----------------------------|
E|-44444444444444444444444444-----------------------------|

   We are the lazy gneation
e|--------------------------------------------------------|
b|--------------------------------------------------------|
g|-666666666666666666666666-------------------------------|
d|-666666666666666666666666-------------------------------|
a|-444444444444444444444444-------------------------------|
E|--------------------------------------------------------|

   We are the lazy genoration
e|--------------------------------------------------------|
b|--------------------------------------------------------|
g|-66666666666666666666666666-----------------------------|
d|-66666666666666666666666666-----------------------------|
a|-44444444444444444444444444-----------------------------|
E|--------------------------------------------------------|

   Now
e|--------------------------------------------------------|
b|--------------------------------------------------------|
g|--------------------------------------------------------|
d|-22222222222222222222222222-----------------------------|
a|-22222222222222222222222222-----------------------------|
E|-44444444444444444444444444-----------------------------|

   We are the lazy generation
e|--------------------------------------------------------|
b|--------------------------------------------------------|
g|--------------------------------------------------------|
d|-22222222222222222222222222-----------------------------|
a|-22222222222222222222222222-----------------------------|
E|-44444444444444444444444444-----------------------------|

   We are the lazy gneation
e|--------------------------------------------------------|
b|--------------------------------------------------------|
g|-666666666666666666666666-------------------------------|
d|-666666666666666666666666-------------------------------|
a|-444444444444444444444444-------------------------------|
E|--------------------------------------------------------|

   We are the lazy genoration
e|--------------------------------------------------------|
b|--------------------------------------------------------|
g|-66666666666666666666666666-----------------------------|
d|-66666666666666666666666666-----------------------------|
a|-44444444444444444444444444-----------------------------|
E|--------------------------------------------------------|

   Now
e|--------------------------------------------------------|
b|--------------------------------------------------------|
g|--------------------------------------------------------|
d|-22222222222222222222222222-----------------------------|
a|-22222222222222222222222222-----------------------------|
E|-44444444444444444444444444-----------------------------|

*Solo*
e|------------------------------------------------------------|
b|------------------------------------------------------------|
g|---11-11-11-13-13-11-10-11----------------------------------|
d|---11-11-11-13-13-11-10-11----------------------------------|
a|----9--9--9-11-11--9--8--9----------------------------------|
E|------------------------------------------------------------|

e|--------------------------------------------------------|
b|--------------------------------------------------------|
g|---11-11-11-15-15-13-11-13------------------------------|
d|---11-11-11-15-15-13-11-13------------------------------|
a|----9--9--9-13-13-11--9-11------------------------------|
E|--------------------------------------------------------|

e|--------------------------------------------------------|
b|--------------------------------------------------------|
g|---11-11-11-15-15-13-11-13-11---------------------------|
d|---11-11-11-15-15-13-11-13-11---------------------------|
a|----9--9--9-13-13-11--9-11--9---------------------------|
E|--------------------------------------------------------|
   
  Stand   Up    And    Shout   We wont   Be there for
e|---------------------------------------------------------|
b|---------------------------------------------------------|
g|-4444----333---222---------------------------------------|
d|-4444----444---222----4444----333333-----222222----------|
a|-2222----111---000----4444----444444-----222222----------|
E|----------------------2222----111111-----000000----------|

   You!  Hey!  Hey! Hey!  Hey!  Hey!  Hey!  
e|--------------------------------------------------------|
b|--------------------------------------------------------|
g|-6-----6~xx--6----6~xx--6-----6~xx--6-------------------|
d|-6-----6~xx--6----6~xx--6-----6~xx--6-------------------|
a|-4-----4~xx--4----4~xx--4-----4~xx--4-------------------|
E|--------------------------------------------------------|


   Lets go!
e|--------------------------------------------------------|
b|--------------------------------------------------------|
g|--------------------------------------------------------|
d|--------------------------------------------------------|
a|--------------------------------------------------------|
E|--------------------------------------------------------|

  Stand   Up    And    Shout   We wont   Be there for
e|---------------------------------------------------------|
b|---------------------------------------------------------|
g|-4444----333---222---------------------------------------|
d|-4444----444---222----4444----333333-----222222----------|
a|-2222----111---000----4444----444444-----222222----------|
E|----------------------2222----111111-----000000----------|

   You!  Hey!  Hey! Hey!  Hey!  Hey!  Hey!  Lets go!
e|--------------------------------------------------------|
b|--------------------------------------------------------|
g|-6-----6~xx--6----6~xx--6-----6~xx--6-------------------|
d|-6-----6~xx--6----6~xx--6-----6~xx--6-------------------|
a|-4-----4~xx--4----4~xx--4-----4~xx--4-------------------|
E|--------------------------------------------------------|  

   We are the lazy generation
e|--------------------------------------------------------|
b|--------------------------------------------------------|
g|--------------------------------------------------------|
d|-22222222222222222222222222-----------------------------|
a|-22222222222222222222222222-----------------------------|
E|-44444444444444444444444444-----------------------------|

   We are the lazy generation
e|--------------------------------------------------------|
b|--------------------------------------------------------|
g|--------------------------------------------------------|
d|-22222222222222222222222222-----------------------------|
a|-22222222222222222222222222-----------------------------|
E|-44444444444444444444444444-----------------------------|

   We are the lazy generation
e|--------------------------------------------------------|
b|--------------------------------------------------------|
g|--------------------------------------------------------|
d|-22222222222222222222222222-----------------------------|
a|-22222222222222222222222222-----------------------------|
E|-54444444444444444444444444-----------------------------|

   We are the lazy generation
e|--------------------------------------------------------|
b|--------------------------------------------------------|
g|--------------------------------------------------------|
d|-22222222222222222222222222-----------------------------|
a|-22222222222222222222222222-----------------------------|
E|-44444444444444444444444444-----------------------------|

   Now!
e|--------------------------------------------------------|
b|--------------------------------------------------------|
g|--------------------------------------------------------|
d|-4~~~~~~~-----------------------------------------------|
a|-4~~~~~~~-----------------------------------------------|
E|-2~~~~~~~-----------------------------------------------|

   Now!
e|--------------------------------------------------------|
b|--------------------------------------------------------|
g|--6-----------------------------------------------------|
d|--6-----------------------------------------------------|
a|--4-----------------------------------------------------|
E|--------------------------------------------------------|
Tap to rate this tab
# A B C D E F G H I J K L M N O P Q R S T U V W X Y Z