Song name
# A B C D E F G H I J K L M N O P Q R S T U V W X Y Z

The Faceless - The Ancient Covenant tab

-------------------------------------------------------------------------------
			     The Ancient Covenant - Faceless, The
-------------------------------------------------------------------------------
Tabbed by: Ernie L.
Email: emotion.ernie@sbcglobal.net

Here it is. An extremely incomplete tab of this song.
The majority of these parts are the lead guitar parts(Michael Keene).
Note that the majority of the breakdown(last half) of the song isn't tabbed because I 
figure it out.
When the playing the solo bits, I recommend turning your Tone knob all the way down,
You will get a really warm and rich sound close to what Keene got in the demo recording.
Feel free to take this tab and compile it into a more complete one.
However, I would greatly appreciate some sort of credit. Enjoy!

p.s. I apologize in advance if it's a little messy,
this is the first time I ever tabbed anything. :P


Tuning: CGCFAD

D|-------------------------------------11-10-9-10-------------12h16t17p16p12----|
A|-----------------------------10-9-8-9---------------------14--------------14--|
F|----------------------8-7-6-7---------------------------13--------------------|
C|--14~13\-------6-5-4-5--------------------------------14----------------------|
G|--11~10\--------------------------------------------16------------------------|
C|---------6(t)5----------------------------------------------------------------|


|---------11h15~~~~~---------------------------------------------------------|
|-------13-----t19~~---------------------------------------------------------|
|-----12---------------------------------------------------------------------|
|---13-----------------------5(t)4(t)---------8(t)7(t)--------11(t)10(t)-----|
|-15-------------------------------------------------------------------------|
|--------------------1-1-2-2----------4-4-5-5---------7-7-8-8----------------|

|-----------------|
|-------14-16^~~--|
|-----13----------|
|---14------------|
|-16--------------|
|-----------------|

|-------------------------------------11-10-9-10-------------12h16t17p16p12----|
|-----------------------------10-9-8-9---------------------14--------------14--|
|----------------------8-7-6-7---------------------------13--------------------|
|--14~13\-------6-5-4-5--------------------------------14----------------------|
|--11~10\--------------------------------------------16------------------------|
|---------6(t)5----------------------------------------------------------------|


|---------11h15~~~~~-------------------------10-9-8-9-10-9-8-9---------------|
|-------13-----t19~~----11-10-9-10-11-10-9-10-------------------10~~---------|
|-----12--------------------------------------------------------14~~---------|
|---13-----------------------------------------------------------------------|
|-15-------------------------------------------------------------------------|
|----------------------------------------------------------------------------|


|----------------------10-9-8-9-10-9-8-9----------|
|-11-10-9-10-11-10-9-10-------------------11~~----|
|-----------------------------------------15~-----|
|-------------------------------------------------|
|-------------------------------------------------|
|-------------------------------------------------|


|---------------------------------------------------------13h17~17p13------13h17~-20-21~~-|
|--------------21^-22-18~~-------------22^-23-20~~------15-----------15--15---------------|
|-14^-17^-18^--------------14^-17^-18^----------------14---------------14-----------------|
|---------------------------------------------------15------------------------------------|
|-------------------------------------------------17--------------------------------------|
|-----------------------------------------------------------------------------------------|

|-15-14-11-14-11----11----------------------------------------------------------|
|----------------15---15-13-15-13-11----11-----------------------------19~~~~---|
|------------------------------------14----14-12-14-12--12s15h16-18-20----------|
|-------------------------------------------------------------------------------|
|-------------------------------------------------------------------------------|
|-------------------------------------------------------------------------------|

|---------7h11/18-16-15\11-12----------|
|--------9-------------------11~~~~~---|
|-------8------------------------------|
|------9-------------------------------|
|-10h11--------------------------------|
|--------------------------------------|

|--------------------------------------------------------------------------------------------|
|--------------------------------------------------------------------------------------------|
|--------------------------------------------------------------------------------------------|
|-------4-3-2-3-4-3-2-3-------4-3-2-3-4-4-3-2-3-------8-7-6-7-8-7-6-7-------8-7-6-7-8-7-6-7--|
|--------------------------------------------------------------------------------------------|
|-3(t)2-----------------3(t)2-------------------3(t)2-----------------3(t)2------------------|

|-------------------------------------------------------------|
|-------------------------------------------------------------|
|-------------------------------------------------------------|
|-9-9-9-6\5-8/9-9-9-6\5---------9-9-9-6\5-8/9-9-9-6\5--3-2-1--|
|-----------------------5-6-7-6------------------------3-2-1--|
|------------------------------------------------------3-2-1--|

|-------------------------------------------------------------|
|-------------------------------------------------------------|
|-------------------------------------------------------------|
|-9-9-9-6\5-8/9-9-9-6\5---------9-9-9-6\5-8/9-9-9-6/5--3-2-1--|
|-----------------------5-6-7-6------------------------3-2-1--|
|------------------------------------------------------3-2-1--|

D|-------------------------------------11-10-9-10-------------12h16t17p16p12----|
A|-----------------------------10-9-8-9---------------------14--------------14--|
F|----------------------8-7-6-7---------------------------13--------------------|
C|--14~13\-------6-5-4-5--------------------------------14----------------------|
G|--11~10\--------------------------------------------16------------------------|
C|---------6(t)5----------------------------------------------------------------|


|---------11h15~~~~~---------------------------------------------------------|
|-------13-----t19~~---------------------------------------------------------|
|-----12---------------------------------------------------------------------|
|---13-----------------------5(t)4(t)---------8(t)7(t)--------11(t)10(t)-----|
|-15-------------------------------------------------------------------------|
|--------------------1-1-2-2----------4-4-5-5---------7-7-8-8----------------|

|-----------------|
|-------14-16^~~--|
|-----13----------|
|---14------------|
|-16--------------|
|-----------------|

|-------------------------------------11-10-9-10-------------12h16t17p16p12----|
|-----------------------------10-9-8-9---------------------14--------------14--|
|----------------------8-7-6-7---------------------------13--------------------|
|--14~13s-------6-5-4-5--------------------------------14----------------------|
|--11~10s--------------------------------------------16------------------------|
|---------6(t)5----------------------------------------------------------------|


|---------11h15~~~~~-------------------------10-9-8-9-10-9-8-9---------------|
|-------13-----t19~~----11-10-9-10-11-10-9-10-------------------10~~---------|
|-----12--------------------------------------------------------14~~---------|
|---13-----------------------------------------------------------------------|
|-15-------------------------------------------------------------------------|
|----------------------------------------------------------------------------|


|----------------------10-9-8-9-10-9-8-9----------|
|-11-10-9-10-11-10-9-10-------------------11~~----|
|-----------------------------------------15~-----|
|-------------------------------------------------|
|-------------------------------------------------|
|-------------------------------------------------|

|---------------------------------------------------------------------|
|---------------------------------------------------------------------|
|---------------------------------------------------------------------|
|-2-1--1-1-1-1-1-1-1-1-1-1-1-1-1---0-2-1--1-1-1-1-1-1-1-1-1-1-1-0---0-|
|-2-1--1-1-1-1-1-1-1-1-1-1-1-1-1---0-2-1--1-1-1-1-1-1-1-1-1-1-1-0---0-|
|-2-1--1-1-1-1-1-1-1-1-1-1-1-1-1---0-2-1--1-1-1-1-1-1-1-1-1-1-1-0---0-|


|-------------------------------------------------------------------------|
|-------------------------------------------------------------------------|
|-------------------------------------------------------------------------|
|-------------------------------------------------------------------------|
|-------------------------------------------------------------------------|
|-1-1-1-1-2-2-2-2-5-5-5-5-6-6-6-6h8-8-8-8-8-8-8-9h12-12-12-12-12-12-12----|

|--------------------------------------------------------------------------|
|------------------14^--15-17^-15h18-14~~--14h15h18t21s22s21p18p15p14(6x)--|
|-11-12-14-15-14-15---15---------------------------------------------------|
|--------------------------------------------------------------------------|
|--------------------------------------------------------------------------|
|--------------------------------------------------------------------------|

|--21^~~-21^-18-17~h18-18p17-17^~~-15-15h17-17^~~--------------------------|
|--------------------------------------------------------------------------|
|--------------------------------------------------------------------------|
|--------------------------------------------------------------------------|
|--------------------------------------------------------------------------|
|--------------------------------------------------------------------------|

| /  slide up
| \  slide down
| h  hammer-on
| p  pull-off
| ~  vibrato
| ^  bend note
| +  harmonic
| x  Mute note
|(t) Tremelo
Tap to rate this tab
 
# A B C D E F G H I J K L M N O P Q R S T U V W X Y Z