Guitaretab - guitar tabs
Song name
# A B C D E F G H I J K L M N O P Q R S T U V W X Y Z

The Faceless - Cannibals tab

Cannibal By Left To Rot (not faceless)
Written By Andrew and Chris

This is a song that I wrote with my friend.  We are forming a band and I am getting 
opinions on how they like this song, so please private message me back and tell me how it is 
how I did on the timing with the two different guitars.
Thanks!!!

Drop C tuning - CGCFAD

Key
PM - Palm Mute
* - Pinch Harmonic
~ - Hold Note
Two os on both sides of the measure - Repeat
t - Tap Harmonic
p - Pull-offs
h - Hammer-ons


Clean - Moderate Picking Speed Guitar 1
|--------------------------------------------------------------------------------|
|--------------------------------------------------------------------------------|
|--------------------------------------------------------------------------------|
|---0---0---3---3---2---2---7---7---8---8---5---5---3---3---2---2---0---0---0~---|
|--0-0-0-0-0-0-0-0-0-0-0-0-0-0-0-0-0-0-0-0-0-0-0-0-0-0-0-0-0-0-0-0-0-0-0-0-0-----|
|-0---0---0---0---0---0---0---0---0---0---0---0---0---0---0---0---0---0---0------|

Distorted - Guitar 1
|--------------------------------------------------------------------------------|
|--------------------------------------------------------------------------------|
|--------------------------------------------------------------------------------|
|--------0-------3-------2-------7-------8-------5-------3-------2-------------0-|
|-00000000-3333333-2222222-7777777-8888888-5555555-3333333-2222222-0000000000000-|
|-00000000-3333333-2222222-7777777-8888888-5555555-3333333-2222222-0000000000000-|
PM-------  ------  ------  ------  ------  ------  ------  ------  ------------  |
|                                                                                |
|        Distorted - Moderate Picking Speed Guitar 2                                  |
|--------------------------------------------------------------------------------|
|--------------------------------------------------------------------------------|
|--------------------------------------------------------------------------------|
|---0---0---3---3---2---2---7---7---8---8---5---5---3---3---2---2---0---0---0--0-|
|--0-0-0-0-3-3-3-3-2-2-2-2-7-7-7-7-8-8-8-8-5-5-5-5-3-3-3-3-2-2-2-2-0-0-0-0-0-0-0-|
|-0---0---3---3---2---2---7---7---8---8---5---5---3---3---2---2---0---0---0----0-|

Guitar 1 and 2
|--------------------------------------------------------------------------------|
|-o----------------------------------------------------------------------------o-|
|--------------------------------------------------------------------------------|
|---0-0-0-0-0~---0-0-0-0-0~---7-7-7-7-7---8-8-8-8-8---5-5-5-5-5~--5-7-3----0~----|
|-o-0-0-0-0-0~---0-0-0-0-0~---7-7-7-7-7---8-8-8-8-8---5-5-5-5-5~--5-7-3-3*-0~--o-|
|---0-0-0-0-0~---0-0-0-0-0~---7-7-7-7-7---8-8-8-8-8---5-5-5-5-5~--5-7-3----0~----|
PM  - - - -      - - - -      - - - -     - - - -     - - - -


Guitar 1
|----------------------------------------------------------------------------------|----|
|-o------------------------------------------------------------------------------o-|----|
|----------------------------------------------------------------------------------|----|
|----------------------------------------------------------------------------------|--0-|
|-o00--0000-00--00--0000-00--00--0000-00--00--0000-00--00--0000-00--00--0000-00--o-|--0-|
|--00--0000-00--00--0000-00--00--0000-00--00--0000-00--00--0000-00--00--0000-00----|--0-|
PM --  ---- --  --  ---- --  --  ---- --  --  ---- --  --  ---- --  --  ---- --

Guitar 2
|--------------------------------------------------------------------------------|----|
|-o-11--------------------------------11---11--------------------------------11-o|----|
|-----10-11----------------------11-10-------10-11----------------------11-10----|----|
|----------11-12------------12-11-----------------11-12------------12-11---------|--0-|
|-o-------------11-12--12-11---------------------------11-12--12-11-------------o|--0-|
|--------------------12-------------------------------------12-------------------|--0-|
[ Tab from: http://www.guitaretab.com/t/the-faceless/160296.html ]
Guitar 1
|--------------------------------------------------------------------------------|
|---11---10---6---7---4----------------------------------------------------------|
|---x----x----x---x---x------------------------------Play-4x---------------------|
|---8----7----3---4---1----------------------------------------------------------|
|--------------------------------------------------------------------------------|
|-------------------------------------------------Pick-slide-after-fourth-time---|
|                                                                                        
                                                                                        
              |
|     Guitar 2                                                                           
                                                                                        
   |
|--------------------------------------------------------------------------------|
|--------------------------------------------------------------------------------|
|----------------------------------------------------Play-4x---------------------|
|---7777-8888-5555-7777-0000-----------------------------------------------------|
|---7777-8888-5555-7777-0000-----------------------------------------------------|
|---7777-8888-5555-7777-0000----------------------Pick-slide-after-fourth-time---|

Breakdown
Guitar 1 and 2
|-------------------------------------------------------------------------------|
|-------------------------------------------------------------------------------|
|-------------------------------------------------------------------------------|
|-------------------------------------------------------------------------------|
|--000054--000043--000032--000054000043000032--005400430032--005400430032-------|
|--000054--000043--000032--000054000043000032--005400430032--005400430032-------|
PM ------  ------  ------  ------------------  ------------  ------------

|-------------------------------------------------------------------------------|
|-------------------------------------------------------------------------------|
|-------------------------------------------------------------------------------|
|-054043032--054043032--054043032--054043032--054043032--054043032--054043032---|
|-054043032--054043032--054043032--054043032--054043032--054043032--054043032---|
|-054043032--054043032--054043032--054043032--054043032--054043032--054043032---|

|-------------------------------------------------------------------------------|
|-------------------------------------------------------------------------------|
|-------------------------------------------------------------------------------|
|------------------------------------------------------------3333333333---------|
|----------------------000-3--000-32--000-3--000-32--000-33333333333333---------|
|Pick-slide------------000-3--000-32--000-3--000-32--000-33333333333333---------|
PM                     ---    --- -   ---    ---     --- --


Solo
Guitar 1
|--------------------------------------12---------------------------------------|
|--12~---12-12-12-12-12-12-12-12-12-12---12-11-----10-------9-------------------|
|---------------------------------------------12-11--11-10-9-------8------------|
|------------------------------------------------------------10-9-8------7----4-|
|-------------------------------------------------------------------7-6-5-----4-|
|-------------------------------------------------------------------------6-5-4-|

Fast Tapping
|-------------------19t12h13----------------------------------------------------|
|-19t12h13-19t12h13--------------18t12h13-19t12h13------------------------------|
|---------------------------------------------------19t12h13-18t12h13-----------|
|-------------------------------------------------------------------------------|
|-----------------------------Play-This-3-Times---------------------------------|
|-------------------------------------------------------------------------------|
|   Solo                                                                        |
|       Guitar 2                                                                     |
|--------------------Play-This-3-Times-With-Guitar-1-Solo-Tapping---------------|
|-------------------------------------------------------------------------------|
|---------55555555-77777777------------------55555555-77777777------------------|
|---------55555555-77777777-0000000000000000-55555555-77777777-0000000000000000-|
|---------33333333-55555555-0000000000000000-33333333-55555555-0000000000000000-|
|---------------------------0000000000000000-------------------0000000000000000-|

Guitar 1 and 2
|-------------------------------------------------------------------------------|
|-------------------------------------------------------------------------------|
|-------------------------------------------------------------------------------|
|-------------------------------------------------------------------------------|
|-0-3-2-0-7-8-0-5-3-2-0--0-3-2-0-7-8-0-5-3-2-0----------------------------------|
|-0-3-2-0-7-8-0-5-3-2-0--0-3-2-0-7-8-0-5-3-2-0----------------------------------|
PM - - - - - - - - - - -  - - - - - - - - - -

|-------------------------------------------------------------------------------|
|-------------------------------------------------------------------------------|
|-------------------------------------------------------------------------------|
|--0-0-3-3-2-2-7-7-8-8-5-5-3-3-2-2-0-3-3-2-2-7-7-8-8-5-5-3-3-2-2-0~-------------|
|--0-0-3-3-2-2-7-7-8-8-5-5-3-3-2-2-0-3-3-2-2-7-7-8-8-5-5-3-3-2-2-0~-------------|
|--0-0-3-3-2-2-7-7-8-8-5-5-3-3-2-2-0-3-3-2-2-7-7-8-8-5-5-3-3-2-2-0~-------------|


Re-Intro/ Outro Clean - Moderate Picking Speed
Guitar 1                                                           Slow Down Here
|-------------------------------------------------------------------|------------------||
|o-----------------------------------------------------------------o|------------------||
|-------------------------------------------------------------------|------------------||
|---0---0---3---3---2---2---7---7---8---8---5---5---3---3---2---2---|---0---0---0------||
|o-0-0-0-0-0-0-0-0-0-0-0-0-0-0-0-0-0-0-0-0-0-0-0-0-0-0-0-0-0-0-0-0-o|--0-0-0-0-0-00~---||
|-0---0---0---0---0---0---0---0---0---0---0---0---0---0---0---0-----|-0---0---0---0~---||
Related for Cannibals tab