Song name
# A B C D E F G H I J K L M N O P Q R S T U V W X Y Z

The Faceless - Legion Of The Serpent tab

Help us improve GuitareTab! Take a short survey!
----------------------------------------------------------------------------
			                Legion of the Serpent - The Faceless
----------------------------------------------------------------------------
Tabbed by:/-Vince-\
Email:vince_guit_vince@hotmail.com

Tuning: Drop C
Solo Starting at 2:26


d|--------------------------------------------------131517~--17-17h18p17p15-|
a|--------------------------------------------131516------------------------|
f|-14~--15p14p12h14~--14h15-14-12-11~---121415------------------------------|
c|--------------------------------------------------------------------------|
g|--------------------------------------------------------------------------|
c|--------------------------------------------------------------------------|

d|-17-14---------------15----------1515-13----------------------------------|
a|-------16-15~----(18b--18p15)x4----------15-14-12-11~---------------------|
f|--------------------------------------------------------------------------|
c|--------------------------------------------------------------------------|
g|--------------------------------------------------------------------------|
c|--------------------------------------------------------------------------|

d|11h13h15t17p15p13-11h13h15t22p15p13--11h13h15t17p15p13--11h13h15t22p15p13-|
a|--------------------------------------------------------------------------|
f|--------------------------------------------------------------------------|
c|--------------------------------------------------------------------------|
g|--------------------------------------------------------------------------|
c|--------------------------------------------------------------------------|

d|-20br-18-22b~~------------------------------------------------------------|
a|--------------------------------------------------------------------------|
f|--------------------------------------------------------------------------|
c|--------------------------------------------------------------------------|
g|--------------------------------------------------------------------------|
c|--------------------------------------------------------------------------|


| b  bend
| /  slide up
| \  slide down
| h  hammer-on
| p  pull-off
| ~  vibrato
| +  harmonic
| x  Mute note
===============================================================================
Related for Legion Of The Serpent tab