Song name
# A B C D E F G H I J K L M N O P Q R S T U V W X Y Z

The Faceless - Deconsecrate tab

                             The Faceless
                             Deconsecrate
                               (intro)
                                 \m/

------------------------------------------|
------8-/-10-10b-10br-8-10----------------|
--5/7----------------------7\5--5b-5p3----|
---------------------------------------4--|
------------------------------------------|
------------------------------------------|

--13b13b------------------|
---------13b-13br-11------|
---------------------11~--|
--------------------------|
--------------------------|
--------------------------|

-----------------|----------------------|
--------------7--|------------------10--|
--------5/7-8----|----------8/10-11-----|
--5-7-8----------|--8-10-11-------------|
-----------------|----------------------|
-----------------|----------------------|

then starts off with this:

--------|
--------|
--------|
--------|
--------|
--5454--|
Tap to rate this tab
# A B C D E F G H I J K L M N O P Q R S T U V W X Y Z