Song name
# A B C D E F G H I J K L M N O P Q R S T U V W X Y Z

The Faceless - Autotheist Movement Ii Emancipate tab

           The Faceless
Autotheist movement II : Emancipate (sweep)
            Autotheism
               \m/

This is just that sexy ass sweep

-----------------10-13p10--------------|
--------------11----------11-----------|
-----------10----------------10--------|
--------12----------------------12-----|
--10-13----------------------------13--|
---------------------------------------|

---------------10h13h17/18\17p13p10----------|
-------------11--------------------11--------|
-----------10------------------------10------|
---------12----------------------------12----|
--9/10-13--------------------------------13--|
---------------------------------------------|

----------------9-13p9--------------|
-------------11--------11-----------|
----------10--------------10--------|
-------11--------------------11-----|
--9-13--------------------------13--|
------------------------------------|


--------------9h13h20/21\20p13p10-------------|
------------11--------------------11----------|
----------10------------------------10--------|
--------11----------------------------11------|
--8/9-13--------------------------------13----|
----------------------------------------------|

Hail
Tap to rate this tab
# A B C D E F G H I J K L M N O P Q R S T U V W X Y Z