Song name
# A B C D E F G H I J K L M N O P Q R S T U V W X Y Z

The Faceless - Autotheist Movement Ii Emancipate Guitar Sweeps tab

Tuning: C G C F A D

-----------------10-13p10--------------|
--------------11----------11-----------|
-----------10----------------10--------|
--------12----------------------12-----|
--10-13----------------------------13--|
---------------------------------------|

---------------10h11h13h17/18\17p13p11p10----------|
-------------11--------------------------11--------|
-----------10------------------------------10------|
---------12----------------------------------12----|
--9/10-13--------------------------------------13--|
---------------------------------------------------|

----------------9-13p9--------------|
-------------11--------11-----------|
----------10--------------10--------|
-------11--------------------11-----|
--9-13--------------------------13--|
------------------------------------|


--------------9h11h13h20/21\20p13p11p10-------------|
------------11--------------------------11----------|
----------10------------------------------10--------|
--------11----------------------------------11------|
--8/9-13--------------------------------------13----|
----------------------------------------------------|
Tap to rate this tab
# A B C D E F G H I J K L M N O P Q R S T U V W X Y Z