Song name
# A B C D E F G H I J K L M N O P Q R S T U V W X Y Z

The Faceless - Ten Billion Years tab

Here's the beginning of the song.
Drop C tuning.

He bends most of these notes, just listen to the song and you'll see what I mean.
d|--------------------------|-------------------------------------|
A|-----6--------------------|-------------------------------------|
F|--------6-----------------|---------------0----------0----------|
C|-----------7--------------|---2---------------------------------|
G|--------------7--7--4-----|------4------------------------------|
C|--0--------------------2--|0--------7--1----0-1-2-3----3-2-1-0--|

d|--------------------------|-------------------------------------|
A|-----6--------------------|-------------------------------------|
F|--------6-----------------|---------------0----------0----------|
C|-----------7--------------|---2---------------------------------|
G|------------/12-7-8-4-----|------4------------------------------|
C|--0--------------------2--|0--------7--1----0-1-2-3----3-2-1-0--|

d|--------------------------|-------------------------------------|
A|-----6--------------------|-------------------------------------|
F|--------6-----------------|---------------0----------0----------|
C|-----------7-11-6-7-8-----|---2---------------------------------|
G|--------------------------|------4------------------------------|
C|--0--------------------2--|0--------7--1----0-1-2-3----3-2-1-0--|

I'll add more to this when I have time.
Tap to rate this tab
# A B C D E F G H I J K L M N O P Q R S T U V W X Y Z