Song name
# A B C D E F G H I J K L M N O P Q R S T U V W X Y Z

The Faceless - All Dark Graves tab

---------------------------------------------------------------------------
	      All Dark Graves (Intro only) - The Faceless
---------------------------------------------------------------------------
Tabbed by: Jake Stephens
 www.myspace.com/jake5590

Tuning: Drop C

  Both Guitars
D|-------------------------------------------------------------------------|
A|-------------------------------------------------------------------------|
F|-------------------------------------------------------------------------|
C|-0----0--1----6----0----0--1----6-6--------0----0--1----6----0----0----1-|
G|-0----0--1----6----0----0--1----6-6--------0----0--1----6----0----0----1-|
C|-0----0--1----6----0----0--1----6-6--------0----0--1----6----0----0----1-|
                                  . .

D|-------------------------------------------------------------------------|
A|-------------------------------------------------------------------------|
F|----------------/10-9-7--------------------------------------------------|
C|-/10---/8---7-----------10-8-7-------------------------------------------|
G|-------------------------------10\------555577778888----7777888810101010-|
C|----000--000--0---------------------0000------------5555-----------------|
      ...  ...  .

| /  slide up
| \  slide down
| .  palm-mute
===========================================================================
Tap to rate this tab
 
# A B C D E F G H I J K L M N O P Q R S T U V W X Y Z