Song name
# A B C D E F G H I J K L M N O P Q R S T U V W X Y Z

The Faceless - Horizons Of Chaos Ii Oracle Of The Onslaught tab

The Faceless
Horizons Of Chaos Ii Oracle Of The Onslaught


Tuning: Dropped C: C G C F A D


                                              |--3--|  |--3--|  |--3--| |--3-|  
     T T S S S S S T T S S S S S T T S S S    S  S  S  S  S  S  S  S  S S  S S  
D||----------------------------------------|-------------------13-10-----------|
A||----------------------------------------|-------------12-15-------12-9------|
F||----------------------------------------|-------10-13------------------10-7-|
C||----------------------------------------|--9-12-----------------------------|
G||----------------------------------------|-----------------------------------|
C||--0-0-0---------0-0-0---------0-0-0-----|-----------------------------------|


                                           |--3--|  |--3--|  |--3--|  |--3--|  
  T T S S S S S T T S S S S S T T S S S    S  S  S  S  S  S  S  S  S  S  S  S  
----------------------------------------|-------------------13----------------|
----------------------------------------|----------------15----15-------------|
----------------------------------------|----------13-16----------16-13-------|
----------------------------------------|--9-12-15----------------------15-12-|
----------------------------------------|-------------------------------------|
--0-0-0---------0-0-0---------0-0-0-----|-------------------------------------|


                                           |--3--|  |--3--|  |--3--|  |--3--|  
  T T S S S S S T T S S S S S T T S S S    S  S  S  S  S  S  S  S  S  S  S  S  
----------------------------------------|-------------------13----------------|
----------------------------------------|----------------15----15-------------|
----------------------------------------|----------13-16----------16-13-------|
----------------------------------------|--9-12-15----------------------15-12-|
----------------------------------------|-------------------------------------|
--0-0-0---------0-0-0---------0-0-0-----|-------------------------------------|


                                           |--3--|  |--3--|  |--3--|  |--3--|  
  T T S S S S S T T S S S S S T T S S S    S  S  S  S  S  S  S  S  S  S  S  S  
----------------------------------------|-------------------13----------------|
----------------------------------------|----------------15----15-------------|
----------------------------------------|----------13-16----------16-13-------|
----------------------------------------|--9-12-15----------------------15-12-|
----------------------------------------|-------------------------------------|
--0-0-0---------0-0-0---------0-0-0-----|-------------------------------------|


  T T S S S S S T T S    S S S S T T S S S S S S S T T S S S  
----------------------|--------------------------------------|
----------------------|--------------------------------------|
----------------------|--------------------------------------|
----------------------|----------3-7-3-------------3-7-3-----|
----------------------|------0-5-------5-0-----0-5-------5-0-|
--0-0-0---------------|--0-3---------------0-3---------------|


  S S S S T T S S S S S S S T T S S S   
--------------------------------------||
--------------------------------------||
--------------------------------------||
----------2-6-2-------------2-6-2-----||
------0-4-------4-0-----0-4-------4-0-||
--0-2---------------0-2---------------||




Duration Legend
---------------
W - whole
H - half
Q - quarter
E - 8th
S - 16th
T - 32nd
X - 64th
. - note dotted
|-n-|  - n-tuplets


Tablature Legend
----------------
L - tied note
x - dead note
g - grace note
(n) - ghost note
> - accentuded note
NH - natural harmonic
AH - artificial harmonic
TH - tapped harmonic
SH - semi harmonic
PH - pitch harmonic
h - hammer on
p - pull off
b - bend
br - bendRelease
pb - preBend
pbr - preBendRelease
brb - bendReleaseBend
\n/ - tremolo bar dip
\n - tremolo bar dive
-/n - tremolo bar Release up
/n\ - tremolo bar inverted dip
/n - tremolo bar return
-\n - tremolo bar Release down
S - shift slide
s - legato slide
/ -  slide into from below or out of upwards
\ -  slide into from above or out of downwards
~ - vibrato
W - wide vibrato
tr - trill
TP - tremolo picking
T - tapping
S - slap
P - pop
< - fade in
^ - brush up
v - brush down
Tap to rate this tab
# A B C D E F G H I J K L M N O P Q R S T U V W X Y Z