Guitaretab - guitar tabs
Song name
# A B C D E F G H I J K L M N O P Q R S T U V W X Y Z

The Falcon - The Routes We Wander tab

-----------------------------------------------------------------------------
		     The Routes We Wander - The Falcon
-----------------------------------------------------------------------------

Tabbed by:rob
Email:brainwashed_monkey@bluebottle.com

Tuning:EADGBe

this is the EP version.

Intro
e|-4-4-4-4-4-4-4-4-|
B|-5-5-5-5-5-5-5-5-|
G|-4-4-4-4-4-4-4-4-|
D|-6-6-6-6-6-6-6-6-|
A|-4-4-4-4-4-4-4-4-|
E|-----------------|

Verse
e|-4-4-4-4-4-4-4-4-4-4-4----------------|---------------|
B|-5-5-5-5-5-5-5-5-5-5-5----------------|---------------|
G|-4-4-4-4-4-4-4-4-4-4-4--444-2-222-----|--4~~---2~~----|
D|-6-6-6-6-6-6-6-6-6-6-6--444-2-222--X4-|--4~~---2~~----|
A|-4-4-4-4-4-4-4-4-4-4-4--222-0-000-----|--2~~---0~~----|
E|--------------------------------------|---------------|
   tonight the captain's dreams...        swallow hard...
   the stove and the cold...
[ Tab from: http://www.guitaretab.com/t/the-falcon/106607.html ]
Chorus
e|----------------------------------------|
B|----------------------------------------|
G|-6666-2222------4444--6666-4444-22222---|
D|-6666-2222-2222-4444--6666-4444-22222---|
A|-4444-0000-2222-2222--4444-2222-00000---|
E|-----------0000-------------------------|
   come to life..       again...

Bridge
e|-4-4-4-4-4-4-4-4----------------------------|
B|-5-5-5-5-5-5-5-5----------------------------|
G|-4-4-4-4-4-4-4-4------------22222222--------|
D|-6-6-6-6-6-6-6-6----2222222-22222222----X2--|
A|-4-4-4-4-4-4-4-4----2222222-00000000--------|
E|--------------------0000000-----------------|
    Huh!     Huh!

End
e|----------------------------------|
B|----------------------------------|
G|--------444444-666666-222222------|
D|-222222-444444-666666-222222------| play this until the end of the song.
A|-222222-222222-444444-000000------|
E|-000000---------------------------|
   the lunar eye is burning....

===============================================================================
Related for The Routes We Wander tab
×
Best way to learn
"The Routes We Wander"