Song name
# A B C D E F G H I J K L M N O P Q R S T U V W X Y Z

The Falcon - Feed The Monkey Drown The Worm tab

-------------------------------------------------------------------------------
	         Feed The Monkey, Drown The Worm - The Falcon
-------------------------------------------------------------------------------
Tabbed by:rob
Email:brainwashed_monkey@bluebottle.com

Tuning:EADGBe

intro
e|-XX-0~--3~--1~-----|--1~--3~--0~---XXXXX-|
B|-XX-1~--3~--1~-----|--1~--3~--1~---XXXXX-|
G|-XX-0~--0~--2~--X3-|--2~--0~--0~---XXXXX-|
D|-XX-2~--0~--3~-----|--3~--0~--2~---XXXXX-|
A|-XX-3~--2~--0~-----|--0~--2~--3~---XXXXX-|
E|-XX-----3~---------|------3~-------XXXXX-|
      i'm thirsty, oh lord....

verse
e|--------------------------------------|
B|--------------------------------------|
G|-555555-333333------------------------|
D|-555555-333333--777777-555555-333333--|  X6
A|-333333-333333--777777-555555-333333--|
E|--------111111--555555-333333-111111--|
   there's nothing but windmills...


then back to thirsty...
e|--------------------------|-----------------------|
B|--------------------------|-----------------------|
G|-555555-------------------|---------------555555--|
D|-555555-555555-333333--X3-|-333333-555555-555555--|
A|-333333-555555-333333-----|-333333-555555-333333--|
E|--------333333-111111-----|-111111-333333---------|

then this pattern a few times
e|-------------------------------|
B|-------------------------------|
G|-555555------------------------|
D|-555555-555555-777777-333333---|
A|-333333-555555-777777-333333---|
E|--------333333-555555-111111---|

leading out with this from "last days of disco..."
e|--------------------------|
B|--------------------------|
G|-555555-------------------|
D|-555555-555555-333333-----|
A|-333333-555555-333333-----|
E|--------333333-111111-----|


| /  slide up
| \  slide down
| h  hammer-on
| p  pull-off
| ~  let ring
| +  harmonic
| x  Mute note
===============================================================================
Tap to rate this tab
# A B C D E F G H I J K L M N O P Q R S T U V W X Y Z