Song name
# A B C D E F G H I J K L M N O P Q R S T U V W X Y Z

The Falcon - Huffing The Proverbial Line Off The Proverbial Dong chords

Highlighted       Show chord diagrams
--------------------------------------------------------------------------------------

   Huffing The Proverbial Line Off The Proverbial Dong -or- The Blood And The Frog

--------------------------------------------------------------------------------------

by The Falcon



Tabbed by: Saitenqušler

Email: saitenquaeler@safe-mail.net





    E5  A5 C#5  B5

e|-----------------|
B|-----------------|
G|------2---6---4--|
D|--2---2---6---4--|
A|--2---0---4---2--|
E|--0--------------|





E5                               A5

You can't dig what you don't understand, boy

E5                      A5

Sometimes it's the only way

           E5                    B5

Well, the misery's so fucking exciting

           E5                              A5

Well, the fashion of it all's the fucking rage.

 



          E5                        C#5

These are hammers on strings making notes, babe

       B5                       A5

With blood and the frog in my throat

      E5                  C#5

These are binders covered in bad poetry

      B5                         A5

Now knowing what it's really all about.





    C#5                 E5                  B5                  A5

Oh where, oh where, oh where, oh where, oh where, oh where, oh where

    C#5           E5            B5                 A5

Did you get that stupid shit-eating grin that you wear?

    C#5      E5  B5                  A5      

And what, or who got you through the door?

                       B5            

You're a piece of meat on the killing...





...floor   

e|--------------------------------------------------------------------------|
B|--------------------------------------------------------------------------|
G|--------------2-2--------6--6-6-4--4-4-------------2-2--------6--6-6-4----|
D|--2-2-xxxx-xx-2-2-2-2-xxx6--6-6-4--4-4-2-2-xxxx-xx-2-2-2-2-xxx6--6-6-4----|
A|--2-2-xxxx-xx-0-0-2-2-xxx4--4-4-2--2-2-2-2-xxxx-xx-0-0-2-2-xxx4--4-4-2----|
E|--0-0-xxxx-xx-----0-0-xxx--------------0-0-xxxx-xx-----0-0-xxx------------|



C#5        E5                B5  

These are closed and velvet ropes

       A5              C#5

And a curtain sipping cokes

       E5               B5

To be certain, it's so slow

           A5

That it's hurting, don't you know?





C#5        E5                B5  

These are closed and velvet ropes

       A5              C#5

And a curtain sipping cokes

       E5               B5

To be certain, it's so slow

           A5

That it's hurting, don't you know?



second guitar:

      ..  ..  ..  ..  ..  ..         ..  ..  ..  ..  ..  ..

e|----444-444-444-444-444-444--------444-444-444-444-444-444----------------|
B|----777-777-777-777-777-777--------777-777-777-777-777-777----------------|
G|----------------------------6------------------------------6--------------|



                                               

E5        B5             C#5         A5           

Take your chances in the killing fields         

E5   B5                 C#5     A5             

With all the snakes and dogs                    

     E5             B5       C#5           A5   

And dance 'til you bleed and bone touches steel 

    E5       B5      C#5

And all your hope is gone.





E5        B5             C#5         A5           

Take your chances in the killing fields         

E5   B5                 C#5     A5             

With all the snakes and dogs                    

     E5             B5       C#5           A5   

And dance 'til you bleed and bone touches steel 

    E5       B5       A5

And all your hope is gone.



second guitar:

e|--------------------------------------------------------------------------|
B|----77777775------77777775-/9-11b12---77777775------77777777-/9--11b12----|
G|------------6--4------------------------------6--4------------------------|





    C#5     (B5)     (A5)

And all your hope is gone





| .  palm mute

| /  slide up

| x  mute note

======================================================================================
Tap to rate this tab
# A B C D E F G H I J K L M N O P Q R S T U V W X Y Z