Song name
# A B C D E F G H I J K L M N O P Q R S T U V W X Y Z

The Falcon - The La Z Boy 500 tab

Official Website ---> http://www.thefalconisbiggerthanjesus.com/

Here ya go...it's a pretty easy song.  Just figure out the order for yourselves.

Intro

e--------------------|
B--------------------|
G---55----------55---|
D---55--55--33--55---|
A---33--55--33--33---|
E-------33--11-------|


Verse

e-------------------------------------|
B-------------------------------------|
G---55----------55---55---------------|
D---55--55--33--55---55--33--55--33---|
A---33--55--33--33---33--33--55--33---|
E-------33--11-----------11--33--11---|


Pre-Chorus

e-------------------|
B-------------------|
G-------5-----------|
D---7---5---5---3---|
A---7---3---5---3---|
E---5-------3---1---|

Chorus (acoustic)

e-----------3---1---|
B---1---1---3---1---|
G---0---2---0---2---|
D---2---2---0---3---|
A---3---0---2---3---|
E-----------3---1---|

Solo

e---------------------------------------|
B---------------------------------------|
G--------------5-4----------------------|
D----0-2-3-5-5-----5--5-7-5---5-3-2-----|
A--3------------------------7-------3---|
E---------------------------------------|

e----------------------------|
B----------------------------|
G--------------5--------4-5--|
D----0-2-3-5-5---5--5-7------|
A--3-------------------------|
E----------------------------|
Tap to rate this tab
 
# A B C D E F G H I J K L M N O P Q R S T U V W X Y Z