Song name
# A B C D E F G H I J K L M N O P Q R S T U V W X Y Z

The Falcon - Blckout tab

Tabbed by:
Email:

Tuning: Here are the chords you use. This is my first tab and I donít really play 
but it sounds ok.

e|----5----6---3---5---------------------------------------------------------------|
B|----6----6---3---5---------------------------------------------------------------|
G|----7----7---4---6---------------------------------------------------------------|
D|----7----8---5---7---------------------------------------------------------------|
A|----5----------------------------------------------------------------------------|
E|----x----------------------------------------------------------------------------|

e|-------------------------------------------------------------------------------|
B|-------------------------------------------------------------------------------|
G|--2--5-------------------------------------------------------------------------|
D|--2--5-------------------------------------------------------------------------|
A|--1--3-------------------------------------------------------------------------|
E|-------------------------------------------------------------------------------|

e|--------------------------------------------------------------------------------------------|
B|--------------------------------------------------------------------------------------------|
G|------5---7----------------------7-----10---5--3---2----------------------------------------|
D|--3---5---7--8-------------------7-----10---5--3---2----------------------------------------|
A|--3---3---5--8-------------------5-----8----3--1---0--------------------------1------|   6--|
Tap to rate this tab
# A B C D E F G H I J K L M N O P Q R S T U V W X Y Z