Song name
# A B C D E F G H I J K L M N O P Q R S T U V W X Y Z

The Fall Of Troy - Fcpacoustic tab

its not mine
found it
i thought other ppl should know how 2 play it

Am7               F                C                G
e|----------------|----------------|----------------|----------------|
B|--1-------------|--------1-------|--1-------------|------3/5\3-1/3-|
G|----0---0h2---2-|-----2----------|----0---0h2-----|----0-----------|
D|------2-----0---|--3-------------|------2-------0-|--0-------------|
A|0---------------|----------------|3-----------3---|----------------|
E|----------------|1---------------|----------------|3---------------|

  Am7               F                C                G
e|----------------|----------------|----------------|----------------|
B|--1-------------|--------1-------|1p0-------------|-------1/3------|
G|----0---0h2---2-|-----2----------|----0---0h2-----|----0-----------|
D|------2-----0---|--3-------------|------2-----0h2-|--0-------------|
A|0---------------|----------------|3---------------|----------------|
E|----------------|1---------------|----------------|3---------------|


The Verses are

Am7 F C G    x2
Am7 F C G G# x2
listen to song for strumming pattern etc
The first verse and chorus are picked then strummed the second time through, again 
to the song

  Am7 F   C   G   G#   Dm
e|0---1---0---3---4----1-|
B|1---1---1---0---0----3-|
G|0---2---0---0---0----2-|
D|2---3---2---0---0----0-|
A|0---3---3---2---3------|
E|----1-------3---4------|

on the first two times of the verse i pull off the e|-3-|, listen to in on the recording

and on the chorus i play

  Am7         C
e|0----------|----0-----------|
B|1------1---|----1------0h2--|
G|0------0---|----0--0h2------|
D|2----2-----|--2-------------|
A|0--2-----2-|3---------------|
E|-----------|----------------|

Then F C Dm


the post chorus is just Am7

e|----------------|
B|----------------|
G|----------------|
D|----2/5-2-0h2p0-|
A|0-3-------------|
E|----------------|

the verse and chorus again but strummed
Tap to rate this tab
# A B C D E F G H I J K L M N O P Q R S T U V W X Y Z