Song name
# A B C D E F G H I J K L M N O P Q R S T U V W X Y Z

The Fall Of Troy - The Vomiting Winter tab

This is one of TFOT's newest tracks from there album
its hella sweet
jazz and metalcore mixed
awesome song to play
didnt know about the template lol but here it is

INTRO

e -12p0--------10p0-------12p0-------10p0-------7p0--------------8p0-7~p0*--|
b -----12p0--------10p0-------12p0-------10p0------8p0--------8p0-----------|
g ---------12p0--------9p0--------12p0-------9p0------9p0-8p0---------------|
d --------------------------------------------------------------------------|
a --------------------------------------------------------------------------|
d --------------------------------------------------------------------------|

e ------------------12p0--------10p0-------12p0-------10p0------------------|
b -10--8--7--4444*------12p0--------10p0-------12p0-------10p0--------------|
g -11--9--8--5555*----------12p0--------9p0--------12p0-------9p0-----------|
d --------------------------------------------------------------------------|
a --------------------------------------------------------------------------|
d --------------------------------------------------------------------------|

e -7p0--------------8p0-7~p0*-----------------------------------------------|
b ----8p0-------8p0-----------10--8--7--4444*-------------------------------|
g -------9p0-8p0--------------11--9--8--5555*-------------------------------|
d --------------------------------------------------------------------------|
a --------------------------------------------------------------------------|
d --------------------------------------------------------------------------|

CHORUS

e -----x-12121212x-----x-10101010x---x-88x-----x-12121212x-----x-10101010x--|
b -8888x---------x-5555x---------x-33x---x-8888x---------x-5555x---------x--|
g -7777x-12121212x-4444x-12121212x-22x-99x-7777x-12121212x-4444x-12121212x--|
d -----x---------x-----x---------x-00x---x-----x---------x-----x---------x--|
a -7777x---------x-3333x---------x---x---x-7777x---------x-3333x---------x--|
d -----x---------x-----x---------x---x---x-----x---------x-----x---------x--|

e ---x-88x-----x12121212x-----x-10101010x---x-88x-----x-12121212x-----x-----|
b -33x---x-8888x--------x-5555x---------x-33x---x-8888x---------x-5555x-----|
g -22x-99x-7777x12121212x-4444x-12121212x-22x-99x-7777x-12121212x-4444x-----|
d -00x---x-----x--------x-----x---------x-00x---x-----x---------x-----x-----|
a ---x---x-7777x--------x-3333x---------x---x---x-7777x---------x-3333x-----|
d ---x---x-----x--------x-----x---------x---x---x-----x---------x-----x-----|

CONTINUED

e -10101010x----------------0-0-10h12p0-7p0------5-5-8h10p0-5p0----5h8p0-7*-|
b ---------x-----------8888-----------------5555----------------33----------|
g -12121212x-(7*^)-----7777-----------------4444----------------22----------|
d ---------x----------------------------------------------------00----------|
a ---------x-----------7777-----------------3333----------------------------|
d ---------x----------------------------------------------------------------|

e ------0-0-10h12p0-7p0------5-5-8h10p0-5p0----5h8p0-7*------0-0-10h12p0-7p0-|
b -8888-----------------5555----------------33----------8888-----------------|
g -7777-----------------4444----------------22----------7777-----------------|
d ------------------------------------------00-------------------------------|
a -7777-----------------3333----------------------------7777-----------------|
d ---------------------------------------------------------------------------|

e ------5-5-8h10p0-5p0----5h8p0-7*------0-0-10h12p0-7p0-----5-5-8h10p0-5p0---|
b -5555----------------33----------8888-----------------5555---------------3-|
g -4444----------------22----------7777-----------------4444---------------2-|
d ---------------------00--------------------------------------------------0-|
a -3333----------------------------7777-----------------3333-----------------|
d ---------------------------------------------------------------------------|

break

e------------------------------------------------------------------|
b------------------------------------4--4--------------------------|
g---797------------------797---------7b-7b              -------3---|b
d---777-8108-575-353-3-3-777-8108-1-1----- x2 last part 1-1-0-2----|
a---000-88 8-555-333-3-3-000-88 8-1-1-----              1-1-0------|
d---000-88 8-555-333-3-3-000-88 8-1-1-----              1-1-0------|

e--------------------------------------|
b--------------------------------------|
g---7-7-10-10-13-13-191919---------88--|
d--------------------------7777666666--| x2
a---5-5-8--8--11-11-171717-4444333366--|
d--------------------------4444333366--|
                                                   1.
e------------------------------------x----x--------x---121512----|
b-------------------556565-----------x----x--------x--13----13---|
g-------------------557575-----------x1415x17171717x-14------14--|
d-----------345-------------------345x1515x15151515x15--------15-|
a--------345-------------------345---x1313x17171717x-------------|
d---03450------03450------03450------x----x--------x-------------|

2.e---121511141013912811-|
  b----------------------|
  g----------------------|
  d----------------------|
  a----------------------|
  d----------------------|

e--------------------------------------|
b--------------------------------------|
g---7-7-10-10-13-13-191919---------88--|
d--------------------------7777666666--| x2
a---5-5-8--8--11-11-171717-4444333366--|
d--------------------------4444333366--|

e-------------------------------|
b-------------------------------|
g-------------19---19---19---19-|
d---0-0-0-0-0----0----0----0----|
a---0-0-0-0-0-18-0-18-0-18-0-18-|
d---0-0-0-0-0----0----0----0----|

mini solo not sure on...

e-----------------------------------|
b-----------------------------------|
g-----------------------------------|
d---7-6-9-2-8-7-6-555555-7777666666-|
a---7-6-9-2-6-5-4-333333-4444333666-|
d---7-6-9-2--------------4444333666-|

e--------------------------------------|
b--------------------------------------|
g---7-7-10-10-13-13-191919---------88--|
d--------------------------7777666666--| x2
a---5-5-8--8--11-11-171717-4444333366--|
d--------------------------4444333366--|

e-----------------------------------------------------------------------|
b-----------------------------------------------------------------------|
g-----------------------------------------------------------------------|
d---56545456545-454343454343-343232343232-23212121010--------121010-----|
a---56545456545-454343454343-343232343232-23212121010--------121010 x10-|
d---56545456545-454343454343-343232343232-23212121010--------121010-----|

e---------------------------|
b---------------------------|
g---------------------------|  END
d---7-6-9-2-8-7-6-555555-02-|
a---7-6-9-2-6-5-4-333333-02-|
d---7-6-9-2--------------02-|
Tap to rate this tab
 
# A B C D E F G H I J K L M N O P Q R S T U V W X Y Z