Song name
# A B C D E F G H I J K L M N O P Q R S T U V W X Y Z

The Fall Of Troy - Sledgehammer tab

E-----------------9--9-----------------9--9--------------------------------|
B-----------------9--9-----------------9--9----------9911111212111199------|
G-----------------9--9-----------------9--9----991212----------------------|
D--11-11---11-11----------11-11-11-11--------------------------------------|
A--11-11---11-11----------11-11-11-11--------------------------------------|
D--11-11---11-11----------11-11-11-11--------------------------------------|


E-----------------9--9-----------------9----8---7---6--------|
B-----------------9--9-----------------9----8---7---6--------|
G-----------------9--9-----------------9----8---7---6--------|
D--11-11---11-11----------11-11-11-11----10---9---8----------|
A--11-11---11-11----------11-11-11-11----10---9---8----------|
D--11-11---11-11----------11-11-11-11----10---9---8----------|

E-------------5--5-------------5--5----12p---------15-----|
B-------------5--5-------------5--5-------13p15p0-12------|
G-------------5--5-------------5--5-----------------------|
D--7-7---7-7----------7-7-7-7-----------------------------|
A--7-7---7-7----------7-7-7-7-----------------------------|
D--7-7---7-7----------7-7-7-7-----------------------------|

 -------------5--5-------------5---6---7----8---------|
 -------------5--5-------------5---6---7----8---------|
 -------------5--5-------------5---6---7----8---------|
 --7-7---7-7----------7-7-7-7----8---9---10-----------|
 --7-7---7-7----------7-7-7-7----8---9---10-----------|
 --7-7---7-7----------7-7-7-7----8---9---10-----------| X2


2nd Ending:
 -------------5--5-------------5---6---7------------|
 -------------5--5-------------5---6---7------------|
 -------------5--5-------------5---6---7------------|
 --7-7---7-7----------7-7-7-7----6---5--------------|
 --7-7---7-7----------7-7-7-7----6---5--------------|
 --7-7---7-7----------7-7-7-7----6---5--------------|
Tap to rate this tab
# A B C D E F G H I J K L M N O P Q R S T U V W X Y Z