Song name
# A B C D E F G H I J K L M N O P Q R S T U V W X Y Z

The Fall Of Troy - Chapter Iii Nostalgic Mannerisms tab

Okay, look. We all know these are insanely hard to tab out.
Thom's a beast.
Thanks to GuitarSilkGod91 for making a pretty damn accurate cover.
But let's all try to tab out POTH.
Even if the other 4 songs (as amazing as they are) are already tabbed.
You have my full permission to take this tab, and add to it, and submit it as your own.
Or if you want, message it to me, and I'll add it on, and give full credit.
Thanks.

|-------------------------777x7777---------------------------777x7777-777x7777--|
|8/10\8-----8/10\8--------888x8888---8/10\8------8/10\8------888x8888-888x8888--|
|7/-9\7-----7/-9\8--------999x9999---7/-9\8------7/-9\7------999x9999-999x9999--|
|-------------------------------------------------------------------------------|
|-------------------------------------------------------------------------------|
|-------0h8---------0h8-------------------0h8----------0h8----------------------|

|7h8p7----------------|--------|
|-------8/10-10/12----|-13-----|
|-------7/-9--9/11----|---12---|
|---------------------|-----14-|
|---------------------|--------|
|---------------------|--------|
			  (x10?)

(Guitar re-entry after the sirens dialogue)
|--------------------------------10~--------5~-------|
|---12----8~---7---3~----12----8------7---3----------|
|----------------------------------------------------|
|10----10----5---5----10----10------5---5------------|
|----------------------------------------------------|
|----------------------------------------------------|
Tap to rate this tab
# A B C D E F G H I J K L M N O P Q R S T U V W X Y Z