Song name
# A B C D E F G H I J K L M N O P Q R S T U V W X Y Z

The Fall Of Troy - Chapter Iii Nostalgic Mannerisms tab

Help us improve GuitareTab! Take a short survey!
-------------------------------------------------------------------------------
			Nostalgic Mannerisms - The Fall Of Troy
-------------------------------------------------------------------------------
Tabbed by:GuitarSilkGod91 and myself 
Email:eternal_pie@yahoo.com
if it wasnt for GuitarSilkGod91 i woudnt have figured out the other part to it 
Tuning:normal

|--------------------------------10~--------5~-------|
|---12----8~---7---3~----12----8------7---3----------|
|----------------------------------------------------|
|10----10----5---5----10----10------5---5------------|
|----------------------------------------------------|
|----------------------------------------------------|
then
also alternate pick 17 and 15 
e|-----------10----15p14p15---12~---10~-----12~-----17!--------15!-----------|
B|---12----8-----------------------------------------------------------------|
G|---------------------------------------------------------------------------|
D|10----10-------------------------------------------------------------------|
A|---------------------------------------------------------------------------|
E|---------------------------------------------------------------------------|

e|----------------------10--------12-----------------------------------------|
B|------12-----8----------------------------12--------8----------------------|
G|---------------------------------------------------------------------------|
D|--10-----10-----1010------1010-----1010--------10--------------------------|
A|---------------------------------------------------------------------------|
E|---------------------------------------------------------------------------|

e|----------------------5-------7--------------------------------------------|
B|-----7------3-------------------------7------3-----------------------------|
G|---------------------------------------------------------------------------|
D|--5------5------55-------55------55------5---------------------------------|
A|---------------------------------------------------------------------------|
E|---------------------------------------------------------------------------|
do this two times then it gets a lil faster and its also played diff
e|--------------------10p0-------12p0----------------------5p0-------7p0-----|
B|-----12------8-----------------------------7-------3-----------------------|
G|---------------------------------------------------------------------------|
D|-10-----10------10-------10-----------5--------5------5---------5----------|
A|---------------------------------------------------------------------------|
E|---------------------------------------------------------------------------|
 and thats all i can make out my first tab thanks and someone hurry and please tab the whole thing 


| /  slide up
| \  slide down
| h  hammer-on
| p  pull-off
| ~  vibrato
| +  harmonic
| x  Mute note
===============================================================================
Related for Chapter Iii Nostalgic Mannerisms tab