Song name
# A B C D E F G H I J K L M N O P Q R S T U V W X Y Z

The Fall Of Troy - Untitled tab

Copied out of Guitar Pro. If you want me to submit the guitar pro file I will. I'm doing 
rest of the song as you're reading this :D.

Unreleased song, if you haven't heard it the link is:
http://www.youtube.com/watch?v=jDSJrSCAC2Y

Drop C tuning. No lie.


     E.  S S S  S E  E  S S  S S S    S S S S S  S S E  S S S S  S S S
D||--------5--------------5p-0-----|----------5p-0------------5p-0-----|
A||------7---5h-7----7---------7---|------7--------7------7--------7---|
F||---------------------7--------7-|----7---7-----------7---7--------7-|
C||--5------------5----------------|--4--------------4-----------------|
G||--------------------------------|-----------------------------------|
C||--------------------------------|-----------------------------------|


  S S S S S  S S  S S  S S  S S  S  S S    E.  S S S  S E  E  S S  S S S
------5---5h-7-7p-5---------------------|--------5--------------5p-0-----|
--------7-----------5h-7-7p-5-5h-7p-5---|------7---5h-7----7---------7---|
----7---------------------------------7-|---------------------7--------7-|
--0-------------------------------------|--5------------5----------------|
----------------------------------------|--------------------------------|
----------------------------------------|--------------------------------|


  S S S S S  S S E  S S S S  S S S    W
----------5p-0------------5p-0-----|-------------------|
------7--------7------7--------7---|-------------------|
----7---7-----------7---7--------7-|-------------------|
--4--------------4-----------------|--0----------------|
-----------------------------------|--0----------------|
-----------------------------------|--0----------------|


  E.  S S S  S E  E  S S  S S S    E.  S S  S S E.  S S S  S S S
--------5--------------5p-0-----|--------5p-0-----------5p-0-----|
------7---5h-7----7---------7---|------7------7-----7--------7---|
---------------------7--------7-|---------------------7--------7-|
--5------------5----------------|--4------------4----------------|
--5------------5----------------|--4------------4----------------|
--5------------5----------------|--4------------4----------------|


  E.  S T  T  T  T T  T  T  T E.  S T T T E  T
--------7h-9p-7p-0-----------------------------|
-------------------7h-9p-7p-0------------------|
-----------------------------------------------|
--9---9-----------------------7---7-x-x-x-x--L-|
--9---9-----------------------7---7-x-x-x-x--L-|
--9---9-----------------------7---7-x-x-x-x----|


  E.  S S S  S E  E  S S  S S S    E.  S S  S S E.  S S S  S S S
--------5--------------5p-0-----|--------5p-0-----------5p-0-----|
------7---5h-7----7---------7---|------7------7-----7--------7---|
---------------------7--------7-|---------------------7--------7-|
--5------------5----------------|--4------------4----------------|
--5------------5----------------|--4------------4----------------|
--5------------5----------------|--4------------4----------------|


                  PM PM PM                           PM PM PM
  E.  E.  E.  E.  T  T  T  E  T    E.   E.  E.   E.  T  T  T   E  T
--------------------------------|-----------------------------------|
--------------------------------|-----------------------------------|
------7-------7------------7--L-|------11-------11------------11--L-|
--0---x---0---x---0--0--0--x--L-|--0----x---0----x---0--0--0---x--L-|
--0---5---0---5---0--0--0--5--L-|--0----9---0----9---0--0--0---9--L-|
--0-------0-------0--0--0-------|--0--------0--------0--0--0--------|


  E.  S S S  S E  E  S S  S S S    E.  S S  S S E.  S S S  S S S
--------5--------------5p-0-----|--------5p-0-----------5p-0-----|
------7---5h-7----7---------7---|------7------7-----7--------7---|
---------------------7--------7-|---------------------7--------7-|
--5------------5----------------|--4------------4----------------|
--5------------5----------------|--4------------4----------------|
--5------------5----------------|--4------------4----------------|


  E.  S T  T  T  T T  T  T  T E.  S T T T E  T
--------7h-9p-7p-0-----------------------------|
-------------------7h-9p-7p-0------------------|
-----------------------------------------------|
--9---9-----------------------7---7-x-x-x-x--L-|
--9---9-----------------------7---7-x-x-x-x--L-|
--9---9-----------------------7---7-x-x-x-x----|


  E.  S S S  S E  E  S S  S S S    E.  S S  S S E.  S S S  S S S
--------5--------------5p-0-----|--------5p-0-----------5p-0-----|
------7---5h-7----7---------7---|------7------7-----7--------7---|
---------------------7--------7-|---------------------7--------7-|
--5------------5----------------|--4------------4----------------|
--5------------5----------------|--4------------4----------------|
--5------------5----------------|--4------------4----------------|


                  PM PM PM                           PM PM PM
  E.  E.  E.  E.  T  T  T  E  T    E.   E.  E.   E.  T  T  T   E  T
--------------------------------|-----------------------------------|
--------------------------------|-----------------------------------|
------7-------7------------7--L-|------11-------11------------11--L-|
--0---x---0---x---0--0--0--x--L-|--0----x---0----x---0--0--0---x--L-|
--0---5---0---5---0--0--0--5--L-|--0----9---0----9---0--0--0---9--L-|
--0-------0-------0--0--0-------|--0--------0--------0--0--0--------|


                    PM PM PM                            PM PM PM
  E.   E.  E.   E.  T  T  T   E  T    E.   E.  E.   E.  T  T  T   E  T
-----------------------------------|-----------------------------------||
-----------------------------------|-----------------------------------||
------14-------14------------14--L-|------19-------19------------19--L-||
--0----x---0----x---0--0--0---x--L-|--0----x---0----x---0--0--0---x--L-||
--0---12---0---12---0--0--0--12--L-|--0---17---0---17---0--0--0--17--L-||
--0--------0--------0--0--0--------|--0--------0--------0--0--0--------||


Duration Legend
---------------
W - whole
H - half
Q - quarter
E - 8th
S - 16th
T - 32nd
X - 64th
. - note dotted
|-n-|  - n-tuplets


Tablature Legend
----------------
L - tied note
x - dead note
g - grace note
(n) - ghost note
> - accentuded note
NH - natural harmonic
AH - artificial harmonic
TH - tapped harmonic
SH - semi harmonic
PH - pitch harmonic
h - hammer on
p - pull off
b - bend
br - bendRelease
pb - preBend
pbr - preBendRelease
brb - bendReleaseBend
\n/ - tremolo bar dip
\n - tremolo bar dive
-/n - tremolo bar Release up
/n\ - tremolo bar inverted dip
/n - tremolo bar return
-\n - tremolo bar Release down
S - shift slide
s - legato slide
/ -  slide into from below or out of upwards
\ -  slide into from above or out of downwards
~ - vibrato
W - wide vibrato
tr - trill
TP - tremolo picking
T - tapping
S - slap
P - pop
< - fade in
^ - brush up
v - brush down
Tap to rate this tab
# A B C D E F G H I J K L M N O P Q R S T U V W X Y Z