Song name
# A B C D E F G H I J K L M N O P Q R S T U V W X Y Z

The Fall Of Troy - Battleship Graveyard tab

Song: Battleship Graveyard
Artist: The Fall of Troy
Album: In The Unlikely Event
Released: 2009

Tuning: Half Step Down from Standard

|------------------------------------------------------------------|
|----7p0-0h7p0--10p0-0h10p0--7p0-0h7p0--10p0-0h10p0----------------|
|------------------------------------------------------------------|
|--99---------99-----------99---------99---------------------------|
|--99---------99-----------99---------99---------------------------|
|--99---------99-----------99---------99---------------------------|

|------------------------------------------------------------------|
|------------------------------------------------------------------|
|------------------7p0-0h7p0---------------------------------------|
|--55-7p0-0h7p0-55-----------55------------------------------------|
|--55-----------55-----------55------------------------------------|
|--55-----------55-----------55------------------------------------|

And yeah, that's all i can get.
Hope it helps. Maybe someone can continue it
Tap to rate this tab
 
# A B C D E F G H I J K L M N O P Q R S T U V W X Y Z