Song name
# A B C D E F G H I J K L M N O P Q R S T U V W X Y Z

The Fall Of Troy - Webs tab

The Fall of Troy - In The Unlikely Event
Webs
Just the intro, might be a little off, but it should be just about right.

|---------------------||---------------------|
|---------------------||---------------------|
|---------------------||---------------------|
|----------0--4--2----||--------0-4-2--4/6-2-|
|-----0h2-------------||----0h2--------------|
|--0------------------||--0------------------|

|---------------------||---------------------|
|---------------------||---------------------|
|---------------------||--4------4p2---------|
|--2--------2---------||--2-----------2-4/6--|
|--4----------4-------||--4------------------|
|---------------------||---------------------|
Tap to rate this tab
# A B C D E F G H I J K L M N O P Q R S T U V W X Y Z