Song name
# A B C D E F G H I J K L M N O P Q R S T U V W X Y Z

The Fall Of Troy - Webs tab

The Fall of Troy
Webs
Tabbed by: GODhimself37
10/1/09

Ok so it's not finished, but hell it's not even officially released yet.
Anyways the other guy that tabbed it out needs to get his ears fixed so here is 
what it's supposed to be. Will finish tabbing the song when it's released, 
or when I stop being lazy, because the chorus is really overdubbed with things 
and its hard to make it out.


This is played throughout most of the song:

Lead
|--------------------------------------------------------|
|--------------------------------------------------------|
|-----------------------------1----------------2p1-------|
|--------2-4-2----------2-4-2---2-1--2-------------2-4/6-|
|----2h4------------2h4----------------4-----------------|
|-0--------------0------------------------4-5------------|


Rhythm 
|-------------------------------------------0------------|
|-------------------------------------------0------------|
|---------------------------------1---------2------------|
|---------------------------------2---------2------------|
|---------------------------------4---------0------------|
|---------------------------------0---------0------------|
Tap to rate this tab
# A B C D E F G H I J K L M N O P Q R S T U V W X Y Z