Song name
# A B C D E F G H I J K L M N O P Q R S T U V W X Y Z

The Fall Of Troy - Straight-jacket Keelhauled tab

-------------------------------------------------------------------------------
		 Straight-Jacket Keelhauled - The Fall Of Troy
-------------------------------------------------------------------------------

 x2
e|-------------------------------------------------------------------|
B|-------------------------------------------------------------------|
G|-------------------5-7-9----4p0-4p0---4p0-4p0---4p0-4p0---4p0-4p0--|
D|-------------------7-9-10------------------------------------------|
A|777777-7-6-777777---------3---------3---------3---------3----------|
D|777777-7-6-777777---------3---------3---------3---------3----------|
  
 x1
e|-------------------------------------------------------------------------|
B|--------------------------------------------------------------------[10]-|
G|---------------------5-7-9----4p0-4p0---4p0-4p0---4p0-4p0---4p0-4p0------|
D|---------------------x-x-x-----------------------------------------------|
A|6-777777-7-6-777777--3-5-7--3---------3---------3---------3--------------|
D|6-777777-7-6-777777---------3---------3---------3---------3--------------|

 
e|---------------------------------------------------------------------|
B|---------------------------------------------------------------------|
G|---------------------5-7-9----4p0-4p0---4p0-4p0---4p0-4p0---4p0-4p0--|
D|---------------------x-x-x-------------------------------------------|
A|6-777777-7-6-777777--3-5-7--3---------3---------3---------3----------|
D|6-777777-7-6-777777---------3---------3---------3---------3----------|

e|-------------------|
B|--------4-3-2------|
G|--------7-6-5------|
D|-------------------|
A|2-0~---------------|
D|2-0~---------------|

 x2
e|--------------------------------------------|
B|--10-11/10----------------------4-3-2-------|
G|--13-14/13----------------------7-6-5-------|
D|--------------------------------------------|
A|0------------------------0--888-------------|
D|0-----------7-6-5-6-5-3--0--888-------------|
  .           . . . . . .  .

e|--------------------------------------------------|
B|--10-11/10----------------------------------------|
G|--13-13/13----------------------------------------|
D|--------------------------------------------------|
A|0----------xxxxxxx-5--3-5-3-------------3-5-6-----|
D|0----------xxxxxxx----------7-6-5-3-5-6-----------|
  .

 x2
e|---------------------------------------------------------|
B|---------------------------------------------------------|
G|---------------------------------------------------------|
D|---------------------------------------------------------|
A|5--3-5-3-------------3-5-6--5--3-5-3---------------------|
D|---------7-6-5-3-5-6-----------------7-6-5-3-5-6-5p3-----|

e|--------------------------------------------|
B|--------------------------------------------|
G|----------------------------7-7----7---7-7--|
D|----------------------------x-x----x---x-x--|
A|5--3-5-3-------------3-5-6--5-5-0--5-0-5-5--|
D|---------7-6-5-3-5-6------------0----0------|
                                  .    .
e|---------------------------------------------------------|
B|---------------------------------------------------------|
G|---------------------------------------------------------|
D|---------------------------------------------------------|
A|5--3-5-3-------------3-5-6--5--3-5-3---------------------|
D|---------7-6-5-3-5-6-----------------7-6-5-3-5-6-5p3-----|

 x2
e|-------------------------------------------------------------------|
B|-------------------------------------------------------------------|
G|7---7-7---7--6---6-6---6--3---3-3---3---------------6---6-6---6----|
D|x---x-x---x--x---x-x---x--x---x-x---x--7---7-7---7--x---x-x---x----|
A|5-0-5-5-0-5--4-0-4-4-0-4--1-0-1-1-0-1--x-0-x-x-0-x--4-0-4-4-0-4----|
D|--0-----0------0-----0------0-----0----7-0-7-7-0-7----0-----0------|
    .     .      .     .      .     .      .     .      .     .

 x2
e|------------------------------------------------------|
B|------------------------------------------------------|
G|77777777-9999999-1010101010101010-1212121212121212----|
D|xxxxxxxx-xxxxxxx-x-x-x-x-x-x-x-x--x-x-x-x-x-x-x-x-----|
A|55555555-7777777-8-8-8-8-8-8-8-8--1010101010101010----|
D|------------------------------------------------------|


e|-------------------------------------------------------------------|
B|---------------4444-------16161616------------------9/---9/---9/---|
G|7---10---------7777-------19191919---7---10---13----x----x----x----|
D|7-5-10-8-----------------------------7-5-10-8-13----7/---7/---7/---|
A|5-5-8--8-8-5-0-----------------------5-5-8--8-11--0----0----0------|
D|--5----8-8-5-0-----000000--------------5----8-----0----0----0------|
               .     ......                         .    .    .

e|-------------------------------|
B|----6---9/---9/---9/----6------|
G|----x---x----x----x-----x------|
D|----4---7/---7/---7/----4------|
A|------0----0----0--------------|
D|000---0----0----0----000-------|

  (1.53 - 2.23)
e|-------------------------------------------------------------------|
B|-------------------------------------------------------------------|
G|-------------------5-7-9----4p0-4p0---4p0-4p0---4p0-4p0---4p0-4p0--|
D|-------------------7-9-10------------------------------------------|
A|777777-7-6-777777---------3---------3---------3---------3----------|
D|777777-7-6-777777---------3---------3---------3---------3----------|
Tap to rate this tab
# A B C D E F G H I J K L M N O P Q R S T U V W X Y Z