Song name
# A B C D E F G H I J K L M N O P Q R S T U V W X Y Z

The Fall Of Troy - Battleship Graveyard tab

after looking around here, i couldnt find a very accurate or complete tab
to the album version of this song. so i made one. first tab.
not the whole song.. yet. just what i have tonight.
pretty sure im in standard drop d tuning right now and it matches the album.

e|---------------------------------------------------------10p0------------|
B|-----7p0-----7p0-----10p0------10p0------7p0-----7p0----------10/12------|
G|---------7p0--------------11p0---------------7p0--------------------11p0-|
D|9-9--------------9-9----------------9-9--------------9-9-----------------|
A|9-9--------------9-9----------------9-9--------------9-9-----------------|
D|9-9--------------9-9----------------9-9--------------9-9-----------------|

-----------------------------------------------------------------------------|
-----------------------------------------------------------------------------|
-----------------------7-0-----7-0------XX-4-6-7-6-7-9-7-9-11-9-11-12-11-9-7-|
5-5--7-0-5-0-7-0--5-5------7-0------5-5--------------------------------------|
5-5---------------5-5---------------5-5--------------------------------------|
5-5---------------5-5---------------5-5--------------------------------------|

---------------------------------------------------------10p0------------|
-----7p0-----7p0-----10p0------10p0------7p0-----7p0----------10/12------|
---------7p0--------------11p0---------------7p0--------------------11p0-|
9-9--------------9-9----------------9-9--------------9-9-----------------|
9-9--------------9-9----------------9-9--------------9-9-----------------|
9-9--------------9-9----------------9-9--------------9-9-----------------|

-----------------------------------------------------------------------|
-----------------------------------------------------------------------|
-----------------------7-0-----7-0------XX-4-6-7-6-7-9-7-9-11-9-11-9-7-|
5-5--7-0-5-0-7-0--5-5------7-0------5-5--------------------------------|
5-5---------------5-5---------------5-5--------------------------------|
5-5---------------5-5---------------5-5--------------------------------|

--------------------------10p7---------------------10p7h9p7---------|
-----------7h8p7-10p7h8p7------8p7-----------7h8p7----------10p7h8\-|
--------------------------------------------------------------------|
9-9-9-9--9------------------------9-9-9-9--9------------------------|
9-9-9-9--9------------------------9-9-9-9--9------------------------|
9-9-9-9--9------------------------9-9-9-9--9------------------------|

----------------------------|
----------------------------|
7-7-x-x-7-7-x-x-7-7-x-x-6-6-|
8-8-x-x-8-8-x-x-7-7-x-x-4-4-|
5-5-x-x-5-5-x-x-5-5-x-x-0-0-|
5-5-x-x-5-5-x-x-5-5-x-x-0-0-|

--------------------------10p7---------------------10p7h9p7---------|
-----------7h8p7-10p7h8p7------8p7-----------7h8p7----------10p7h8\-|
--------------------------------------------------------------------|
9-9-9-9--9------------------------9-9-9-9--9------------------------|
9-9-9-9--9------------------------9-9-9-9--9------------------------|
9-9-9-9--9------------------------9-9-9-9--9------------------------|

----------------------------|
----------------------------|
7-7-x-x-7-7-x-x-7-7-x-x-6-6-|
8-8-x-x-8-8-x-x-7-7-x-x-4-4-|
5-5-x-x-5-5-x-x-5-5-x-x-0-0-|
5-5-x-x-5-5-x-x-5-5-x-x-0-0-|

5p3-------------------|
---3----5/7-----------|
----3--3----6---------|
-----4--------8-------|
----------------9p0-5-|
----------------------|
Tap to rate this tab
 
# A B C D E F G H I J K L M N O P Q R S T U V W X Y Z