Song name
# A B C D E F G H I J K L M N O P Q R S T U V W X Y Z

The Fall Of Troy - Webs tab

The Fall of Troy- “Webs”
Whole step down from standard tuning
First time making a tab. hope it’s not to bad.
if it's bad, http://www.youtube.com/watch?v=M6Lc2-TYvUg. hopefully that will make things clearer.


D|--------------------------------------------------------------|
A|--------------------------------------------------------------|
F|------------0h2--0-----------------0h2--0--4--0-------0-------|
C|--------0h2----------2p0-------0h2-----------------4-----2----|
G|---------------------------------------------------2----------|
D|-----3----------------------3----------------------0----------|


D|---------------------------| x5
A|--------3—1p0--------------|
F|--------0-----0--2s4-------|
C|--------2------------------|
G|--------3------------------|
D|-----0---------------------|

D|-----3-----5-----2------------------------|
A|-----3-----3-----3-----5-----0------------|
F|-----0-----0-----2-----5-----0------------|
C|-----2-----2-----2-----4-----8------------|
G|-----3-----3-----------5-----6------------|
D|------------------------------------------|
 (Figure out the strumming for yourself)

D|----10----13--------3----3----3----3--------|
A|-----9----11--------3----0----0----3--------|
F|-----7----10--------0----0----0----0--------|
C|-----8----12--------0----2----2----0--------|
G|-----7----10--------2----3----3----2--------|
D|-----0-----0--------3--------------3--------|

SOLO!


Repeat!!!	

D|--------------------------------------------------------------|
A|--------------------------------------------------------------|
F|------------0h2--0-----------------0h2--0--4--0-------0-------|
C|--------0h2----------2p0-------0h2-----------------4-----2----|
G|---------------------------------------------------2----------|
D|-----3----------------------3----------------------0----------|

						Ending chord is G!
D|---------------------------|x2
A|--------3—-1p0-------------|
F|--------0-------0--2s4-----|
C|--------2------------------|
G|--------3------------------|
D|-----0---------------------|

Tap to rate this tab
# A B C D E F G H I J K L M N O P Q R S T U V W X Y Z