Song name
# A B C D E F G H I J K L M N O P Q R S T U V W X Y Z

The Fall Of Troy - A Classic Case Of Transference tab

-----------------------------------------------------------------------------
               ~A Classic Case Of Transference~ By The Fall Of Troy
-----------------------------------------------------------------------------

Tabbed by ~Peace of Bert~
Email: Bert3136@yahoo.com

Tuning: eBGDAE

Intro:
e|-1212121212121212----------------1212121212121212----------------|
B|-131313131313131313131313131313131313131313131313----------------|
G|-----------------1414141414141414----------------1414141414141414|
D|-------------------------------------------------1515151515151515|
A|-----------------------------------------------------------------|
E|-----------------------------------------------------------------|

Verse:
The next part I'm going to tab a little differently then it is actually played 
simply because if your not very skilled then it will sound like crap if not played 
right...so this is the simplified version in my opinion.(It still sounds the same, 
though it won't line up with the original music so don't try to play with the song)

 Tap This!!!!
e|---12--8p-5h-8---12--8p-5h-8--10-7p4h7h-10-7p4h7h-10-7p4h7-------|
B|-----------------------------------------------------------------|

 And this too!!!
e|---12--8p-5h-8---12--8p-5h-8-------------------------------------|
B|------------------------------13-10p6h10h-13-10p6h10h-13-10p6h10-|

                                Sweep!!!!
e|---12--8p-5h-8---12--8p-5h-8-------------------------------------|
B|---------------------------------5h8p5---------------------------|
G|--------------------------------5-----5--------------------------|
D|-------------------------------7-------7-------------------------|
A|------------------------------8---------8------------------------|
E|-----------------------------------------------------------------|

Pre-Chorus:           
e|--------77-----66-----77-----33-----77-----66--------------------|
B|--------77-----77-----77-----33-----77-----77--------------------|
G|--------77-----66-----77-----44-----77-----66--------------------|
D|--7/9-9-99-8-8-88-9-9-99-5-5-55-9-9-99-8-8-88-777777-------------|
A|----------------------------------------------555555555555-------|
E|----------------------------------------------------333333-------|

e|--------77-----66-----77-----33-----77-----66--------------------|
B|--------77-----77-----77-----33-----77-----77-------333333---7*--|
G|--------77-----66-----77-----44-----77-----66-------333333-------|
D|--7/9-9-99-8-8-88-9-9-99-5-5-55-9-9-99-8-8-88-777777555555-------|
A|----------------------------------------------555555555555-------|
E|----------------------------------------------------333333-------|

Chorus:
e|---------------5-7---------------5-7-/10-|
B|--77-77-77--5-7---5~33-33-33--5-7----/10-|
G|--66-66-66----------44-44-33-------------|
D|--77-77-77----------44-44-33-------------|
A|--55-55-55----------22-22-11-------------|
E|-----------------------------------------|

e|---------------5-7---------------10*-----|
B|--77-77-77--5-7---5~33-33-55-55----------|  Rinse and
G|--66-66-66----------44-44-66-66----------|   Repeat
D|--77-77-77----------44-44-66-66----------|
A|--55-55-55----------22-22-44-44----------|
E|-----------------------------------------|

Fill:
e|------------------------------------------------------------------|
B|-----------11------------11------------11-------------------------|
G|------11-14--14-11--11-14--14-11--11-14--14-11--------------------|
D|----12------------12------------12------------12~-----------------|
A|------------------------------------------------------------------|
E|------------------------------------------------------------------|

Post-Chorus:
e|------------------------------------------------------------------|
B|---66666-6-6--66666-6-6-------5-5-5-5-5-5-------------------------|
G|---77777-7-7--77777-7-7-66-66-6-6-6-6-6-6-------------------------|
D|---77777-7-7--77777-7-7-77-77-6-6-6-6-6-6-------------------------|
A|---55555-5-5--55555-5-5-77-77-4-4-4-4-4-4-------------------------|
E|------------------------55-55-------------------------------------|

e|------------------------------------------8-12-15p12p8h12h15p12p8h12h15-|
B|---66666-6-6--66666-6-6-------5-5-5-5-5-5-------------------------------|
G|---77777-7-7--77777-7-7-66-66-6-6-6-6-6-6-------------------------------|
D|---77777-7-7--77777-7-7-77-77-6-6-6-6-6-6-------------------------------|
A|---55555-5-5--55555-5-5-77-77-4-4-4-4-4-4-------------------------------|
E|------------------------55-55-------------------------------------------|

e|-------------|
B|-------------|
G|---77777-6-6-|
D|---88888-7-7-|
A|---88888-7-7-|
E|---66666-5-5-|

Bridge:
e|-------------------------------------------------------------------|
B|-------------------------------------------------------------------|
G|--------5------------9----------------------7p5-5------------------|
D|---7-7---7-7--10-10---10-10--5-5--7p5-5---7----7-------------------|
A|---5--5---5---8----8----8----7--7----7--7--------------------------|
E|----------------------------------------5--5-----------------------|

e|-------------------------------------------------------------------|
B|-------------------------------------------------------------------|
G|-------------------------------------------------------------------|
D|---777777777777101010101010----------------------------------------|
A|---555555555555888888888888888888888888777777777777----------------|
E|---------------------------666666666666555555555555----------------|

Use the same power chords for the triplets

Cool Spacey Part:
e|---------------------------------------10------------10-14---|
B|----------11------------11--------11-14--14-11--11-14--------|
G|-----11-14--14-11--11-14--14-11-12------------12-------------|
D|---12------------12------------------------------------------|
A|-------------------------------------------------------------|
E|-------------------------------------------------------------|

Use this part for the outro as well

* = Pinch Harmonic (BTW I'm no expert when it comes to these things so if YOU are 
please send me the correct fret locations of them)

/ = Slide up
p = Pull off
h = Hammer on
~ = Vibrato

A few more things: If there is anything that could have been done better please do 
not hesitate to tell me,I tried my best to give you the rhythms by sight but your 
just gonna have to play by ear, except for the already mentioned intro. If there 
are any problems please contact me or if there is any praise then also please contact me.
Tap to rate this tab
# A B C D E F G H I J K L M N O P Q R S T U V W X Y Z