Song name
# A B C D E F G H I J K L M N O P Q R S T U V W X Y Z

The Fall Of Troy - Tom Waits tab

Since there aren't many tabs for the main parts of the song, i decided 
to try to figure thi out. first thing i could see was the solo part 
from the videos, so there it is. I think it's almost perfect.

e|-8p0-----8p0-----|-------3p0-------|-------7~----|-------5~----|
B|-----6-------6---|---1-------3p1---|---6-----6---|---3-----3---|
G|-------7-------7-|-2---2---------2-|-7---7-----7-|-4---4-----4-|
D|-----------------|-----------------|-------------|-------------|
A|-----------------|-----------------|-------------|-------------|
E|-----------------|-----------------|-------------|-------------|



e|-8p0-----8p0-----|-------3p0-------|-15p0-------15p0-------|-13p0-------13p0-------|
B|-----6-------6---|---1-------3p1---|------13---------13----|------12---------12----|
G|-------7-------7-|-2---2---------2-|---------14---------14-|---------13---------13-|
D|-----------------|-----------------|-----------------------|-----------------------|
A|-----------------|-----------------|-----------------------|-----------------------|
E|-----------------|-----------------|-----------------------|-----------------------|


e|-8p0-----8p0-----|-------3p0-------|-------7~----|-------5~----|
B|-----6-------6---|---1-------3p1---|---6-----6---|---3-----3---|
G|-------7-------7-|-2---2---------2-|-7---7-----7-|-4---4-----4-|
D|-----------------|-----------------|-------------|-------------|
A|-----------------|-----------------|-------------|-------------|
E|-----------------|-----------------|-------------|-------------|

                                                                      x14
e|-8p0-----8p0-----|-------3p0-------|-15p0-------15p0-------|-10h12--12-|
B|-----6-------6---|---1-------3p1---|------13---------13----|-----------|
G|-------7-------7-|-2---2---------2-|---------14---------14-|-----------|
D|-----------------|-----------------|-----------------------|-----------|
A|-----------------|-----------------|-----------------------|-----------|
E|-----------------|-----------------|-----------------------|-----------|
Tap to rate this tab
# A B C D E F G H I J K L M N O P Q R S T U V W X Y Z