The Fall Of Troy - Adventures Of Allan Gordon tab

Tuning: Standard
Tabbed by: Spencer Heath

Let me be the first to say that this isn't 100% correct, but considering that no one 
has put up a tab for the song I'm pretty satisfied with it.
If someone wants to use this tab to make a better version please do. And yes I realize I 
tell you when to go back and play a previous part, etc.
But if you can't figure that out on your own then why are you looking at Fall of 
Troy tabs anyway!?!

Intro Riff 0:00
e:--------------------------------------|
B:--------------------------------------|
G:--------------------------------------|
D:--------9-9---------9-9--9h10p9-------|
A:-7-7-7-------7-7-7--------------------|
E:--------------------------------------|x8

 0:19
e:
B:
G:
D:-2
A:-2
E:-0

0:23
e:------------------------|
B:------------------------|
G:-12b-9--------------9b--|
D:--------12-9-12----12b--|
A:------------------------|
E:------------------------|

0:27
e:-----------|
B:-----------|
G:-----------|
D:10-9-7-2---|
A:10-9-7-2---|
E:-8-7-5-0---|

0:32
e:------------------------------------------------------------------------|
B:------------------------------------------------------------------------|
G:12p10p9-12p10p9-12p10p9-12p10p9-12p10p9--15p14h15p14h15p14h15p1416b-----|
D:--------------------------------------------------------------------/-2-|
A:--------------------------------------------------------------------/-2-|
E:--------------------------------------------------------------------/-0-|

0:40
e:-----------------------------------------------------------------|
B:17p0-17p0-17p0-17p0-17p017p0--20p0-20p0-20p0-20p0-20p020p0-------|
G:-----------------------------------------------------------------|
D:-----------------------------------------------------------------|
A:-----------------------------------------------------------------|
E:-----------------------------------------------------------------|x3

0:53
e:--------15----15-----|
B:----16-----------16--|
G:-14--------14--------|
D:---------------------|
A:---------------------|repeat as necessary, Thomas uses a lot of effects right here
E:---------------------|

1:01
e:-----------------|
B:-----------------|
G:-------xx-7-7----|
D:-9-7-5-xx-7-7----|
A:-9-7-5-xx-5-5----|
E:-7-5-3-----------|x4

1:09
e:--------------------------------------------------------|
B:--------------------------------------------------------|
G:11/12-12--11/12-12--11/12-12---11/12-12--11/12-11/12----|
D:--------------------------------------------------------|
A:9-/10-10---9/10-10--9-/10-10---9-/10-10---9/10--9/10----|
E:--------------------------------------------------------|x2

1:13
e:repeat same progression as above^^
B:---------
G:14/15-15-
D:---------
A:12/13-13-
E:--------x2

Verse Riff:  1:33 (Thomas never plays it exactly the same way twice, so what I do is use 
notes and just play power chords following this pattern)
this [ ] note is only used the 1st time
e:-------------------------------------------------------------------|
B:12-10-15-[12]--13-12-10-----15-13-12--13-12-10-----15-13-12--------|
G:------------------------12---------------------12------------------|
D:-------------------------------------------------------------------|
A:-------------------------------------------------------------------|
E:-------------------------------------------------------------------|

Bridge: 3:01
e:-------------------------------------------------------------------------|
B:-------------------------------------------------------------------------|
G:1111---1111--1111--1111--111111--12-12--12-12--12-12-12-14-12---12-12-12-|
D:-x-x---x-x---x-x---x-x---x-x-x---x--x----x--x---x--x--x--x--x----x--x--x-|
A:-9-9---9-9---9-9---9-9---9-9-9---10-10--10-10--10-10-10-10-10---10-10-10-|
E:-------------------------------------------------------------------------|

Bridge Continued
e:---------------------------------------------8----8---8------------|
B:-----------------------------------------------8----8-----8--------|
G: 1111--1111---1111-1111--111111---9-9--9-9-------------------9-----|
D: -x-x---x-x---x-x---x-x---x-x-x---x-x--x-x-------------------------|
A: -9-9---9-9---9-9---9-9---9-9-9---7-7--7-7-------------------------|
E:-------------------------------------------------------------------|


Thats it....comments/corrections are always welcome
Tap to rate this tab
 
# A B C D E F G H I J K L M N O P Q R S T U V W X Y Z