Song name
# A B C D E F G H I J K L M N O P Q R S T U V W X Y Z

The Fall Of Troy - Webs tab

-------------------------------------------------------------------------------
			     Webs - The Fall of Troy
-------------------------------------------------------------------------------
Tabbed by:John Bonavita
Email: johnbon0522@yahoo.com

Tuning:Standard

e|-----------------------------------------------------------------------------|
B|-----------------------------------------------------------------------------|
G|-----------------------------------------------------------------------------|
D|-----------------------------------------------------------------------------|
A|----------------------------------7--9h--7-----------------------------------|
E|--------0-----------------7--9h----------------------------------------------|

e|------------------------------------------------------------------------------|
B|------------------------------------------------------------------------------|
G|------------------------------------------------------------------------------|
D|-------------------------------------------6----------------------------------|
A|---------------------------7--9h--7---------------6-------7-------------------|
E|------0-----------7--9h-------------------------------------------9-----------|

e|-----------------------------------------------------------------------------|
B|-----------------------------------------------------------------------------|
G|-----------------------------------------------------------------------------|
D|------------9--------7\6-----------------------------------------------------|
A|-----------------------------7---9/11-------------7--------------------------|
E|-----------------------------------------------------------------------------|


************************************

| /   slide up
| \   slide down
| h   hammer-on
| p   pull-off
| ~   vibrato
| +   harmonic
| x   Mute note
| b   Bend
| pb  Pre-bend
| br  Bend release
| pbr Pre-bend release
| brb Bend release bend

************************************
Tap to rate this tab
 
# A B C D E F G H I J K L M N O P Q R S T U V W X Y Z