Song name
# A B C D E F G H I J K L M N O P Q R S T U V W X Y Z

The Fall Of Troy - Seatlantis tab

This is my first attempt at a public tab. There are some parts including the solo part
at the end that I can't figure out, but you guys should be able to enjoy most of the song
with this tab.

INTRO:
   P    P PPP  PPP P P     P    P PPP              P P P P P   P P P P P P P
E|---------------------|------------------------|---------------------------|
B|-------------3-------|--------------1h3p1-----|----------3-----------3----|
G|--------3-----3--3-3-|----------3--------h3p0-|------3-----------3-------3|
D|---------1-----1-----|-----------1------------|---------------------------|
A|-3----3---3----------|---1----1---3-----------|----1---1-------1---1---1--|
E|---------------------|------------------------|--3-----------3------------|

   P P
E|---------------3----3|
B|------3---3----3----3|
G|--------3---3--3----3|
D|---1-----------------|
A|-3-------------------|
E|---------------------|


   P    P PPP  PPP P P     P    P PPP              P P P P P   P P P P P P P
E|---------------------|------------------------|----------------------------|
B|-------------3-------|--------------1h3p1-----|----------3-----------3-----|
G|--------3-----3--3-3-|----------3--------h3p0-|------3-----------3-------3-|
D|---------1-----1-----|-----------1------------|----------------------------|
A|-3----3---3----------|---1----1---3-----------|----1---1-------1---1---1---|
E|---------------------|------------------------|--3-----------3-------------|

   P P
E|---------------3|
B|------3---3----3|
G|--------3---3--3|
D|---1------------|
A|-3--------------|
E|----------------|


VERSE:x2
                         x2
E|-----------------------||
B|-----------------------||
G|---7p0-----7p0---------||
D|-8-------8------8p0----||
A|-6----9--6----9----9p0-||
E|-----------------------||


E|----------------------------??--|-----------------------------??--|
B|----------------------------??--|-----------------------------??--|
G|---3p0-0----3p0-0----3p0-0--??--|----4p0-0----4p0-0----4p0-0--??--|
D|-6--------6--------6--------??--|--6--------6--------6--------??--|
A|-4--------4--------4--------??--|--4--------4--------4--------??--|
E|----------------------------??--|-----------------------------??--|


CHORUS:

   P    P PPP  P P P P     P    P PPP              P    P P PP P PP P P
E|---------------------|------------------------|-----------------------|
B|-------------3-------|--------------1h3p1-----|--------------3--------|
G|--------3--------3-3-|----------3--------h3p0-|---------3--------3-3--|
D|---------1-----1-----|-----------1------------|-----------------------|
A|-3----3---3----------|---1----1---3-----------|-----------1-----------|
E|---------------------|------------------------|--3----3----3---3------|

   P    P PPP
E|-------------3-3-----|
B|-------------3-3-----|
G|--------3----3-3-----|
D|---------1-----------|
A|-3----3---3----------|
E|---------------------|


   P    P PPP  P P P P     P    P PPP              PP P P P   P P P
E|---------------------|------------------------|------------------------------|
B|-------------3-------|--------------1h3p1-----|---------3-------3------xx-3-3|
G|--------3--------3-3-|----------3--------h3p0-|-----3---------3----3-3-xx-3-3|
D|---------1-----1-----|-----------1------------|--------------------3-3-xx----|
A|-3----3---3----------|---1----1---3-----------|------------------------xx-3-3|
E|---------------------|------------------------|--33---3-----3-(3)--3-3-------|

                                            E|3-1-|
                                            B|3-3-|
                                            G|3-3-|
                                            D|----|
BRIDGE#1:                                   A|----|
                                         Or:E|----|
E|-333--333--3-3-----------------|-----------------333--333--3-3-3-|
B|-333--333--3-3--333--1h3p1-----|------------3-3--333--333--3-3-3-|
G|-333--333--3-3--333-------h3p0-|--333--333--3-3--333--333--3-3-3-|
D|-111--111-------111------------|--333--333-------111--111--------|
A|-333--333-------111------------|--111--111--3-3--333--333--------|
E|-------------------------------|--333--333-----------------------|


E|-333--333--3-3-----------------|-----------------333--333--3-3---|
B|-333--333--3-3--333--1h3p1-----|------------3-3--333--333--3-3---|
G|-333--333--3-3--333-------h3p0-|--333--333--3-3--333--333--3-3---|
D|-111--111-------111------------|--333--333-------111--111--------|
A|-333--333-------111------------|--111--111--3-3--333--333--------|
E|-------------------------------|--333--333-----------------------|


VERSE:x2

(THEN)

CHORUS:

(THEN)

BRIDGE#1:

(THEN)
BRIDGE#2:
                    X3                          X3
E|--------h8p0------||--???--|--------h8p0------||--------------------------|
B|---0h5/8----h8p0--||--???--|---0h5/8----h8p0--||--------------------------|
G|-6----------------||--???--|-6----------------||-8--88--8--88-------------|
D|-4----------------||--???--|-4----------------||-7--77--7--77--10-10-10--7|
A|------------------||--???--|------------------||-6--66--6--66---9--9--9--6|
E|------------------||--???--|------------------||----------------8--8--8--5|

                   X2                                                     X3
E|--------h8p0-----||----------------------------------|--------h8p0------||
B|---0h5/8----h8p0-||----------------------------------|---0h5/8----h8p0--||
G|-6---------------||-----3----------------3-----------|-6----------------||
D|-4---------------||-1-1---1--111111--3-3---3---------|-4----------------||
A|-----------------||-3-3---3--333333--1-1---1--111111-|------------------||
E|-----------------||---------------------------333333-|------------------||


THE UNKNOWN SOLO THING:
????????
Tap to rate this tab
# A B C D E F G H I J K L M N O P Q R S T U V W X Y Z