Song name
# A B C D E F G H I J K L M N O P Q R S T U V W X Y Z

The Fall Of Troy - Fcpremix Acoustic tab

I'm the guitar player on a video cover of this song got a lot of requests for it:

http://www.youtube.com/watch?v=AVrP9aUsLgw

For the strumming pattern/pauses/embellishes just replay the video a bunch ;)

Verse:

e---------------------------------------------------|
b---------------------------------------------------|
g-12---9---7---5------------------------------------|
d-10---7---5---3------------------------------------|
a-12---8---7---5------------------------------------|
e---------------------------------------------------|

Verse variations:

e---------------------------------------------------|
b---------------------------------------------------|
g-12---9---7---5------------------------------------|
d-10---7---5---5------------------------------------|
a-12---8---7---x------------------------------------|
e--------------5------------------------------------|

(x) = Harmonic

e----------------(12)~-----------------------------|
b----------------(12)~-----------------------------|
g-12---9---7-----(12)~-----------------------------|
d-10---7---5---------------------------------------|
a-12---8---7---------------------------------------|
e--------------------------------------------------|

Chorus/Outro (same chords just different strumming):

e--0----/0---0---1---3-----------------------------|
b--0----/0---0---1---3-----------------------------|
g--5----/7---9---2---4-----------------------------|
d--5----/7---10--3---5-----------------------------|
a--x----/x---7---3---5-----------------------------|
e--5----/7---8---1---3-----------------------------|


Any questions let me know on my youtube account: timmytamagotchi
Tap to rate this tab
 
# A B C D E F G H I J K L M N O P Q R S T U V W X Y Z