Song name
# A B C D E F G H I J K L M N O P Q R S T U V W X Y Z

The Fall Of Troy - Holy Tape tab

-----------------------------------------------------------------------------
                      The Hol[]y Tape - The Fall of Troy
-----------------------------------------------------------------------------

My second tab, also a Fall of Troy song off of their amazing album Doppelganger. 
This song is just so damn fun to play so I had to share this. If you're interested 
or stuck on a certain part I actually made a youtube cover of this song. Keep in 
mind that I did that video about a year ago so some parts changed a little bit but 
it's still mostly the same. Enjoy.

(http://www.youtube.com/watch?v=D9bi_6VMeKo)

Intro

Play this 2 times

e|--------------------------------------------------------------3/5p0-|
B|---------1p0---------3p0-1p0----------------1p0-------3p0-1p0-------|
G|------------2p0-------------2p0----------------2p0------------------|
D|-3-3-3-3--------2p0------------2p0---3-3-3-3-------2p0--------------|
A|-2-2-2-2-----------------------------2-2-2-2------------------------|
E|-1-1-1-1-----------------------------1-1-1-1------------------------|

:10

e|------------------7-7-7---7-7-7------------------7-7-7---------|
B|-----8-8-6-6-5-5--8-8-8---8-8-8-----8-8-6-6-5-5--8-8-8--5-5-5--|
G|------------------9-9-9---9-9-9------------------9-9-9--5-5-5--|
D|-7-7-----------------------------7-7--------------------5-5-5--|
A|---------------------------------------------------------------|
E|---------------------------------------------------------------|

e|---------------------------------------------------|------|
B|-6-6-x-6-6-x-x-6-6-x-6-6-x-x-----------------------|------|
G|-5-5-x-5-5-x-x-5-5-x-5-5-x-x-9-9-x-9-9-\-----------|------|
D|-7-7-x-7-7-x-x-7-7-x-7-7-x-x-6-6-x-6-6-\-3-3-3-3-3-|--9*--|
A|-8-8-x-8-8-x-x-8-8-x-8-8-x-x-7-7-x-7-7-\-2-2-2-2-2-|------|
E|-----------------------------------------1-1-1-1-1-|------|

Play the pinch harmonic at the end of the second repeat

:28

Repeat this part twice              
e|-----------------------------------8----8-------|
B|------8b10------12b13------8b10-----------------|
G|--------------------------------8-9--9-8--9-8-0-|
D|-9--10-----9--10------9--10---------------------|
A|-10-12-----10-12------10-12---------------------|
E|------------------------------------------------|
                                  . . . . . . . 
e|---------------------------------------------------------------|
B|------8b10------12b13------8b10--5p3p0--8p5p0--10p8p0--8h10h12-|
G|---------------------------------------------------------------|
D|-9--10-----9--10------9--10------------------------------------|
A|-10-12-----10-12------10-12------------------------------------|
E|---------------------------------------------------------------|

After the second repeat play the second phrase (:10) then play this 

1:00

e|-------|
B|--6----|
G|--5--9-|
D|--7--6-|
A|--8--7-|
E|-------|

I'm not 100% sure about this part but this is what I'm hearing. I'm just going to 
type each octave once and you can listen for the change. Sorry I'm being lazy.

e|-------------------------------|
B|-------------------------------|
G|--14--13--16--10-14--10--9--10-|
D|--x---x---x---x--x---x---x--x--|
A|--12--11--14--8--12--8---7--8--|
E|-------------------------------|

1:23  

e|-------------------------------------|
B|-------------------------------------|
G|-------------------------------------|
D|-------------------------------------|
A|-------------------------------3--5--|
E|-5--3--0--5--3--5--3--0--5--3--------|

Repeat that part a bunch of times until you get to the solo

e|--------------------------------------------------------------------------|
B|-10-----13----17p13--17p13--17p13--17p13--17p13-----16p13--16p13--16p13---|
G|-12b14--15b17------14-----14-----14-----14-----14-14-----14-----14-----14-|
D|--------------------------------------------------------------------------|
A|--------------------------------------------------------------------------|
E|--------------------------------------------------------------------------|

e|------------------------------------------------------------------------0-|
B|-18p13--18p13---13p10---13p10---13p10---13p10--13p10----12p9--12p9--12p9--|
G|------14-----14-------10------10------10-----10-----10-10----10----10-----|
D|--------------------------------------------------------------------------|
A|--------------------------------------------------------------------------|
E|--------------------------------------------------------------------------|
                                                    repeat this part 3 times
e|-------------------------------------------------|------------------------|
B|-10----------10----------------------------------|------------------------|
G|-12b14--9-7--12b14--9-7--7h9p7-------------------|7h9p7-------------------|
D|-------------------------------10-9-9h10p9---7---|-----10-9-9h10p9-7\5/7\5|
A|-------------------------------------------10--10|------------------------|
E|-------------------------------------------------|------------------------|

1:57

Play this whole phrase twice

                 x4
e|----------------|----------------------------------------------------|
B|------------8\7-|--7p0--8p0---10p0---12p0-15-15-15-15----------------|
G|-----4/7p0------|-------------------------x--x--x--x---16-16--16-16--|
D|--5h7------0----|-7----9----12-----14-----12-12-12-12--14-14--14-14--|
A|----------------|--------------------------------------15-15--15-15--|
E|----------------|----------------------------------------------------|
                                          1st repeat           2nd repeat
e|---------------------------------------|------10------------|-------------|
B|---------------------------------------|-----8---------8/10-|-------------|
G|--14-14--14-14--19-19-19-19--12-12--12-|---9-------9-7------|-14-14-14-14-|
D|--12-12--12-12--17-17-17-17--10-10--10-|-9-------9----------|-12-12-12-12-|
A|--14-14--14-14--19-19-19-19--12-12--12-|--------------------|-14-14-14-14-|
E|---------------------------------------|--------------------|-------------|

2:20

This part is pretty difficult to hear but this is my best guess as to what's happening.

e|--------------------------10-10-10--------------------------------|
B|--------------------8-8-8-----------------------------------------|
G|----4---7-7---4---7------------------4---7-7--9--8br-9--9--9--8br-|
D|--5-5---5-5-5-5---5----------------5-5---5-5--10-----10-10-10-----|
A|--7-7-7-7-7-7-7-7-7----------------7-7-7-7-7----------------------|
E|------------------------------------------------------------------|

e|--------------------------------------10-10-10----|
B|----------------4-4-8-----------8-8-8-------------|
G|-9--9--9--11br--7-7-11--11br--7-------------------|
D|-10-10-10-----------------------------------------|
A|--------------------------------------------------| Repeat this phrase
E|--------------------------------------------------| twice

2:44

e|------------------------------------------------------------------------|
B|--------12\-------11\--------11\--------8---15--15/19-15-15/19\15/19\15-|
G|--------15\-------14\--------14\--------11--18--18/22-18-18/22\18/22\18-|
D|-2--------------------2-------------------------------------------------|
A|-1--------------------1-------------------------------------------------|
E|-0-0-0-0---0-0-0-0----0-0-0-0----0-0-0-0--------------------------------|
     . . .   . . . .      . . .    . . . .
e|---------------------------------12p0-13p0------------12p0-13p0------|
B|-15/19-15-15/19\15---------------------------------------------------|
G|-18/22-18-18/22\18p0--14-15p14-14----------14-15p14-14---------------|
D|---------------------------------------------------------------------|
A|---------------------------------------------------------------------|
E|---------------------------------------------------------------------|

e|----15p0----15p0----15p0---15p0----15p0-| Play that entire phrase twice
B|----------------------------------------|
G|-14------14------14------14-----14------|
D|----------------------------------------|
A|----------------------------------------|
E|----------------------------------------|

3:10

e|---------------------------------------8-10-12\-----|
B|--------------------------------7-9-11-9-11-13\-----|
G|-------------------------5-7-9--7-9-11--------------|
D|-3-3-3-------------4-6-8-6-8-10---------------------|
A|-2-2-2-------3-5-7-5-7-9----------------------------|
E|-1-1-1-0-0-0-4-6-8----------------------------------|

Repeat that part 4 times then at the end of the 4th repeat end the song on this chord:

e|--14-|
B|--15-|
G|--14-|
D|-----|
A|-----|
E|-----|

kpbyrnes@albany.edu
Tap to rate this tab
# A B C D E F G H I J K L M N O P Q R S T U V W X Y Z