Song name
# A B C D E F G H I J K L M N O P Q R S T U V W X Y Z

The Fall Of Troy - Mouths Like Sidewinder Missiles tab

Mouths Like Sidewinder Missiles
By The Fall of Troy
Best. Band. Ever.
I started playing cause of them.
Anyways...

Tuning: EADGBe

|--10h12p10p0---5h7p5p0---10h12p10p0---15h17p15p0---10h12p10p0---5h7p5p0-|
|------------------------------------------------------------------------|
|9----------------------9-------------------------9----------------------|
|9------------9---------9------------9------------9------------9---------|
|7------------9---------7------------9------------7------------9---------|
|-------------7----------------------7-------------------------7---------|

      1     +     2     +     3     +     4
|--(10h12p10h12p10h12p10h12p10h12p10h12p10h12)---------------------------|
|------------------------------------------------------------------------|
|9-----------------------------------------------------------------------|
|9-----------------------------------------------------------------------|
|7-----------------------------------------------------------------------|
|------------------------------------------------------------------------|


|--10h12p10p0---5-5h7p5p3p0---10h12p10p0--------15h17p15p0---10h12p10p0--|
|------------------------------------------15h17-------------------------|
|9--------------------------9------------------------------9-------------|
|9------------9-------------9------------9-----------------9-------------|
|7------------9-------------7------------9-----------------7-------------|
|-------------7--------------------------7-------------------------------|

|--5-5h7p5p3p0-----------------------------------------------------------|
|------------------------------------------------------------------------|
|---------------7777777-55-4---------------------------------------------|
|9--------------7777777-55-4---------------------------------------------|
|9--------------5555555-33-2---------------------------------------------|
|7-----------------------------------------------------------------------|

|--10h12p10p0---5-5h7p5p3p0---10h12p10p0--------15h17p15p0---10h12p10p0--|
|------------------------------------------15h17-------------------------|
|9--------------------------9------------------------------9-------------|
|9------------9-------------9------------9-----------------9-------------|
|7------------9-------------7------------9-----------------7-------------|
|-------------7--------------------------7-------------------------------|

|--5-5h7p5p3p0-|--------------------------------|
|--------------|--------------------------------|
|--------------|-7777777-55-4--9-9-9-9-10-10-7--|
|9-------------|-7777777-55-4--9-9-9-9--9--9-7--|
|9-------------|-5555555-33-2--7-7-7-7--7--7-5--|
|7-------------|--------------------------------|

|----------------------------------|
|----------------------------------|
|-7777777-55-4--9-9-9-9-10-10-7~~--|
|-7777777-55-4--9-9-9-9--9--9-7~~--|
|-5555555-33-2--7-7-7-7--7--7-5~~--|
|----------------------------------|

|----10p0-7p0-5p0-3p0----10p0-7p0h7/12p0-10p0---------------------|
|-----------------------------------------------------------------|
|---9-------------------9-----------------------------------------| (x3)
|---9-------------------9-----------------------------------------|
|---7-------------------7-----------------------------------------|
|000-----------------000------------------------------------------|


|----10p0-7p0-5p0-3p0----10p0-7p0h7/12p0-10p0------12*------------|
|--------------------------------------------------12*------------|
|---9-------------------9--------------------------12*------------|
|---9-------------------9-----------------------------------------|
|---7-------------------7-----------------------------------------|
|000-----------------000-----------------------000----------------|

|--10h12p10p0---5-5h7p5p3p0---10h12p10p0--------15h17p15p0---10h12p10p0--|
|------------------------------------------15h17-------------------------|
|9--------------------------9------------------------------9-------------|
|9------------9-------------9------------9-----------------9-------------|
|7------------9-------------7------------9-----------------7-------------|
|-------------7--------------------------7-------------------------------|

|--5-5h7p5p3p0-----------------------------------------------------------|
|------------------------------------------------------------------------|
|---------------7777777-55-4---------------------------------------------|
|9--------------7777777-55-4---------------------------------------------|
|9--------------5555555-33-2---------------------------------------------|
|7-----------------------------------------------------------------------|

|--10h12p10p0---5-5h7p5p3p0---10h12p10p0--------15h17p15p0---10h12p10p0--|
|------------------------------------------15h17-------------------------|
|9--------------------------9------------------------------9-------------|
|9------------9-------------9------------9-----------------9-------------|
|7------------9-------------7------------9-----------------7-------------|
|-------------7--------------------------7-------------------------------|

|--5-5h7p5p3p0-----------------------------------------------------------|
|------------------------------------------------------------------------|
|---------------7777777-55-4---------------------------------------------|
|9--------------7777777-55-4---------------------------------------------|
|9--------------5555555-33-2---------------------------------------------|
|7-----------------------------------------------------------------------|

|----10p0-7p0-5p0-3p0----10p0-7p0h7/12p0-10p0---------------------|
|-----------------------------------------------------------------|
|---9-------------------9-----------------------------------------| (x3)
|---9-------------------9-----------------------------------------|
|---7-------------------7-----------------------------------------|
|000-----------------000------------------------------------------|


|----10p0-7p0-5p0-3p0----10p0-7p0h7/12p0-10p0------12*------------|
|--------------------------------------------------12*------------|
|---9-------------------9--------------------------12*------------|
|---9-------------------9-----------------------------------------|
|---7-------------------7-----------------------------------------|
|000-----------------000-----------------------000----------------|

|--10h12p10p0---5-5h7p5p3p0---10h12p10p0--------15h17p15p0---10h12p10p0--|
|------------------------------------------15h17-------------------------|
|9--------------------------9------------------------------9-------------|
|9------------9-------------9------------9-----------------9-------------|
|7------------9-------------7------------9-----------------7-------------|
|-------------7--------------------------7-------------------------------|

|--5-5h7p5p3p0-----------------------------------------------------------|
|------------------------------------------------------------------------|
|---------------7777777-55-4---------------------------------------------|
|9--------------7777777-55-4---------------------------------------------|
|9--------------5555555-33-2---------------------------------------------|
|7-----------------------------------------------------------------------|

|--10h12p10p0---5-5h7p5p3p0---10h12p10p0--------15h17p15p0---10h12p10p0--|
|------------------------------------------15h17-------------------------|
|9--------------------------9------------------------------9-------------|
|9------------9-------------9------------9-----------------9-------------|
|7------------9-------------7------------9-----------------7-------------|
|-------------7--------------------------7-------------------------------|

|--5-5h7p5p3p0-----------------------------------------------------------|
|------------------------------------------------------------------------|
|---------------7777777-55-4---------------------------------------------|
|9--------------7777777-55-4---------------------------------------------|
|9--------------5555555-33-2---------------------------------------------|
|7-----------------------------------------------------------------------|

|-------------------------------------------------------------------------|
|12p0----12p0----12--12p0----15p0----12-----------------------------------|
|----12p0----12p0--12----12p0----12p0--12-11p0-12p0-----11p0-12p0---------|
|--------------------------------------------------12p0----------12p0-----|
|-------------------------------------------------------------------------|
|-------------------------------------------------------------------------|

|-----------------------------------------------------------|
|-----------------------------------------------------------|
|12-11-(Trem Pick starting here)14-12-11-11h12p11-----------|
|------------------------------------------------h12--------|
|-----------------------------------------------------------|
|-----------------------------------------------------------|

|-------------------------------------------------------------------------|
|12p0----12p0----12--12p0----15p0----12-----------------------------------|
|----12p0----12p0--12----12p0----12p0--12-11p0-12p0-----11p0-12p0---------|
|--------------------------------------------------12p0----------12p0-----|
|-------------------------------------------------------------------------|
|-------------------------------------------------------------------------|


|-----------------------------------------------------------|
|-----------------------------------------------------------|
|12-11-(Trem Pick starting here)14-12-11-11h12p11-----------|
|------------------------------------------------h12--------|
|-----------------------------------------------------------|
|-----------------------------------------------------------|


|--------------------------------------------------------------|
|--------------------------------5-6p5--6p5--------------------|
|9----9-----14----12----7----1212-----5----5-5----10----9------|
|x(x5)x(x5)--x(x5)-x(x5)x(x5)-x-x------------x(x5)-x(x5)x(x5)--|
|7----7-----12----10----5----1010------------3-----8----7------|
|--------------------------------------------------------------|

|------------------------------------------------------------|
|------------------------------------------------------------|
|44444-44444-44444-555---------------------------------------|
|xxxxx-xxxxx-xxxxx-xxx-(x2)----------------------------------|
|22222-22222-22222-333---------------------------------------|
|------------------------------------------------------------|

Break (Drum fill, then solo)

|--------------------------------------------------------------------|
|---------------------7h9p7h9p7h9p7----8---8/10121315131213p1213p12--|
|7h9-7h9p7\5-4h5p4----7h9p7h9p7h9p7-545-545--------------------------|
|-----------------5h7------------------------------------------------|
|--------------------------------------------------------------------|
|--------------------------------------------------------------------|

|------------------------------------------------------------|
|8h10-10p8-----8h10h12p10----8h10h12p10p8h10p8p5h8p5---------|
|---------9-7h9-----------7h9--------------------------------|
|------------------------------------------------------------|
|------------------------------------------------------------|
|------------------------------------------------------------|

|-----------12-15-12-15-15h17-15-19-20-19-(17p15--)----------|
|13-15-13-15------------------------------(-----17)----------|
|-----------------------------------Repeat, gaining speed----|
|------------------------------------------------------------|
|------------------------------------------------------------|
|------------------------------------------------------------|


|--------------------------------------------------------|
|--------------------------------------------------------|
|7-6-----7-6---------------------------------------------|
|7-6-7-9-7-6-7-9-----------------------------------------|
|5-4-7-9-5-4-7-9-----------------------------------------|
|----5-7-----5-7-----------------------------------------|

That's the end, baby.
Tap to rate this tab
 
# A B C D E F G H I J K L M N O P Q R S T U V W X Y Z