Song name
# A B C D E F G H I J K L M N O P Q R S T U V W X Y Z

The Fall Of Troy - The Circus That Has Brought Us Back To These Nights tab

Help us improve GuitareTab! Take a short survey!
Artist: The FAll of Troy
Album:  The FAll of Troy
Song:   The Circus That Has Brought Us Back To These Nights
Tabbed by John Zebley (john.zebley@maine.edu)

This is not exactly 100% correct, but it is waayyy closer anything ive seen online

Drop D Tuning (most of their songs are in standard)

b = bend
h = hammer on
p = pull off
x = stum or pick a number of times
pm. = muted
~ = ring out



  Intro/verse a guitar 1

E|-0-0---0-0-0--0-0-0--0-0-0--0-0-0--0-0-0--0-0-0--0-0-0--0--|
B|-6-6---6-6-6--6-6-6--6-6-6--6-5-5--5-5-5--5-8-8--8-8-8--8--|
G|-7-7---7-7-7--7-7-7--7-7-7--7-7-7--7-7-7--7-7-7--7-7-7--7--|
D|-----------------------------------------------------------|
A|-----------------------------------------------------------|
D|-----------------------------------------------------------|
 
E|-0-0---0-0-0--0-0-0--0-0-0--0-0~------8p0------------------|
B|-6-6---6-6-6--6-6-6--6-6-6--6-5~--------6------------------|
G|-7-7---7-7-7--7-7-7--7-7-7--7-7~---------------------------|
D|-----------------------------------------------------------|
A|-----------------------------------------------------------|
D|-----------------------------------------------------------|

E|-0-0---0-0-0--0-0-0--0-0-0--0-0-0--0-0-0--0-0-0--0-0-0--0--|
B|-6-6---6-6-6--6-6-6--6-6-6--6-5-5--5-5-5--5-8-8--8-8-8--8--|
G|-7-7---7-7-7--7-7-7--7-7-7--7-7-7--7-7-7--7-7-7--7-7-7--7--|
D|-----------------------------------------------------------|
A|-----------------------------------------------------------|
D|-----------------------------------------------------------|

E|-0-0---0-0-0--0-0-0--0-0-0--0-0--------------------------------|
B|-6-6---6-6-6--6-6-6--6-6-6--6-5-5-5-5-5-5-5-5-5-5-5-5-5-5-5-5--|
G|-7-7---7-7-7--7-7-7--7-7-7--7-7-7-7-7-7-7-7-7-7-7-7-7-7-7-7-7--|
D|---------------------------------------------------------------|
A|---------------------------------------------------------------|
D|---------------------------------------------------------------|


   Intro guitar 2

E|-0~---------|
B|-6~---------|
G|-7~---------| x4
D|------------|
A|------------|
D|------------|
  
   verse a guitar 2
E|---10-----------------8-----10---------10------7-8--7--8--10--12-13-|
B|------10-----8--6--5-----6------6---------10------------------------|  
G|-7----------------------------------7-------------------------------|x2
D|--------------------------------------------------------------------|
A|--------------------------------------------------------------------|
D|--------------------------------------------------------------------|

verse b
                 [this part not totally correct, notes are correct but
                 |rythm is weird] 
E|---------------|------0---8p0----------------|
B|---------------|--6-----6-----6--------------|
G|-10------------|7---7-----------7------------| play 4 times but 4th time 
D|-10----0-0-0---|-----------------------------| pause on the second part
A|--8----0-0-0---|-----------------------------|
D|--8----0-0-0---|-----------------------------|
   x16    pm.



  bridge guitar1
E|-0-0---0-0-0--0-0-0--0-0-0--0-0-0--0-0-0--0-0-0--0-0-0--0--|
B|-6-6---6-6-6--6-6-6--6-6-6--6-5-5--5-5-5--5-8-8--8-8-8--8--|
G|-7-7---7-7-7--7-7-7--7-7-7--7-7-7--7-7-7--7-7-7--7-7-7--7--|
D|-----------------------------------------------------------|
A|-----------------------------------------------------------|
D|-----------------------------------------------------------|

E|-0-0---0-0-0--0-0-0--0-0-0--0-0--------------------------------|
B|-6-6---6-6-6--6-6-6--6-6-6--6-5-5-5-5-5-5-5-5-5-5-5-5-5-5-5-5--|
G|-7-7---7-7-7--7-7-7--7-7-7--7-7-7-7-7-7-7-7-7-7-7-7-7-7-7-7-7--|
D|---------------------------------------------------------------|
A|---------------------------------------------------------------|
D|---------------------------------------------------------------|


  bridge guitar 2 
 (also not completely correct, please submit corrections only if u know u got it exactly)

E|--0h10h12x5--0h10h13x5--t15p7h8h10x4--t17p10h12h15x2---15b~---------|
B|--------------------------------------------------------------------|  
G|--------------------------------------------------------------------|
D|--------------------------------------------------------------------|
A|--------------------------------------------------------------------|
D|--------------------------------------------------------------------|



  Oh so kick ass chorus
                              |probably not the real way but sounds 
                              |accurate with only one guitar
E|----------------------------|-------------------------------|
B|-----13----------13---------|-6---6--6---6--6---6---6-------|  
G|--------9-10-------9-10-----|-------------------------------|
D|--8-----------8----------0--|-7p5-5--7p5-5--7p5-7p5-5-------|
A|--8-----------8----------0--|-------------------------------|
D|--8-----------8----------0--|-------------------------------|


  bridge 2

  not exactly a science just mess w/ the chords you will get it 
E|--0-8----0-8---0-8---0-8--------------------------------------------|
B|--6-6----6-6---6-6---6-6--------------------------------------------|
G|--7-7----5-5--------------------------------------------------------|
D|---------------8-8---7-7--------------------------------------------|
A|--------------------------------------------------------------------|
D|--------------------------------------------------------------------|


  solo (ahh mess with this)
E|-8h10p8-10p8-10p8-8--8h10p8-10p8-10p8-8--10h13p10-13p10-13p10-10-13-|
B|--------------------------------------------------------------------|
G|--------------------------------------------------------------------|
D|--------------------------------------------------------------------|
A|--------------------------------------------------------------------|
D|--------------------------------------------------------------------|
          
                  
E|-15x4-17x8-20x8-22bx4-----------------------------------------------|
B|--------------------------------------------------------------------|
G|--------------------------------------------------------------------|
D|--------------------------------------------------------------------|
A|--------------------------------------------------------------------|
D|--------------------------------------------------------------------|



song structure
_______________

intro
verse a
verse b
bridge
verse a
verse b
chorus
bridge 2
chorus
intro


>_> rock on


Related for The Circus That Has Brought Us Back To These Nights tab