Song name
# A B C D E F G H I J K L M N O P Q R S T U V W X Y Z

The Fall Of Troy - Fcrpemix tab

This is my first tab on here. I'm not saying that cause its shitty and I want you to go 
on the ratings....I'm just sayin... Enjoy!


Intro( without all that delay shit)(x2)
e|---------------------------------------------------------7----------------|
B|----8------5------3-----------------8-------5------3----------------------|
G|--5------5-----0-----------5-----5-------5--------------------------------|
D|7------7-----2------0---3------7------7-----------------------------------|
A|--------------------------------------------------------------------------|
E|--------------------------------------------------------------------------|

Verse

e|---------------------------------------------------------------------------|
B|----8------5------3-----------------8-------5------------------------------|
G|--5------5-----0-----------5-----5-------5-------7-7-7---------------------|
D|7------7-----2------0---3------7------7----------7-7-7--5-5-5--------------|
A|-------------------------------------------------5-5-5--5-5-5--------------|
E|--------------------------------------------------------3-3-3--------------|

Chorus

e|-5-3-0-5-3-0-5-3-0-5-3-0-5-3-0------3----3-----3-----3-----3--------------|
B|--------------------------------0-1--0-1---0-1---0-1---0-1----------------|
G|--------------------------------------------------------------------------|
D|--------------------------------------------------------------------------|
A|--------------------------------------------------------------------------|
E|--------------------------------------------------------------------------|

Chorus(cont.)
e|-0-1-3-0-3-5-0-1-3-0-3-5-0-1-3------8-----8---------10-----10-------------|
B|--------------------------------5-6---5-6---5-6-6-8----6-8----6-8---------|
G|--------------------------------------------------------------------------|
D|--------------------------------------------------------------------------|
A|--------------------------------------------------------------------------|
E|--------------------------------------------------------------------------|

Bridge(s)(once again, theres a lot of delay/other effects here, so dont worry about 
this thing like fucking crazy)
e|----5----8-5-----5---8-5--------------------------------------------------|
B|--5---5--------5---5---------5----8-5-5-6-5-------------------------------|
G|7------------7-------------5---5------------------------------------------|
D|-------------------------7------------------------------------------------|
A|--------------------------------------------------------------------------|
E|--------------------------------------------------------------------------|

e|5-x-x-x-x-x-x-x-5-x-x-x-x-x-x-x-------------------------------------------|
B|5-x-x-x-x-x-x-x-5-x-x-x-x-x-x-x--5-x-x-x-x-x-x-x--5-6-5-------------------|
G|7-x-x-x-x-x-x-x-7-x-x-x-x-x-x-x--5-x-x-x-x-x-x-x--------------------------|
D|---------------------------------7-x-x-x-x-x-x-x--------------------------|
A|--------------------------------------------------------------------------|
E|--------------------------------------------------------------------------|

e|5/13-5/13-----------------------------------------------------------------|
B|5----5----5/17--5-6-5-----------------------------------------------------|
G|7----7----5----------------5----------------------------------------------|
D|----------7-------------7----7--------------2---2-3-2---------------------|
A|----------------------5---------5-3-5-3-0-3--3----------------------------|
E|--------------------------------------------------------------------------|

e|----8----------------------------------------------------------------------|
B|--6---6-------------5--5-6-5-----------------------------------------------|
G|-7------7-5-7-5---5--5-------8---------------------------------------------|
D|----------------7------------7---------------------------------------------|
A|---------------------------------------------------------------------------|
E|---------------------------------------------------------------------------|

e|--------------------------------------------------------------------------|
B|--------------------------------------------------------------------------|(x4)
G|--8h9h8-x-x-x-x---8-8-9--8-8-9-8-8-9--------------------------------------|
D|--7-----x-x-x-x---7-7-7--7-7-7-7-7-7---4---4---7---7----------------------|
A|---------------------------------------3---3---6---6----------------------|
E|-------------------------------------0-2-0-2-0-5-0-5----------------------|

The song is in standard intro verse chorus bridge chorus intro as an outro form....but u 
that already. Later.
-Z
Tap to rate this tab
# A B C D E F G H I J K L M N O P Q R S T U V W X Y Z