Song name
# A B C D E F G H I J K L M N O P Q R S T U V W X Y Z

The Fall Of Troy - Tears Of The Green Eyed Angel tab

Tears of the Green Eyed Angel

#Intro 1A# h=hammer on p=pull off
e|-------------------------------------------------10----------------------------------------------------------------------|
B|---7h8p7-7p5p0-7----8-----10-------10--10--h7-8-------7h8p7-7p5p0-7----8-----10------------------------------------------|
G|-------------------------------------------------------------------------------------------------------------------------|
D|-------------------------------------------------------------------------------------------------------------------------|
A|-------------------------------------------------------------------------------------------------------------------------|
E|--|-------PLAY--------4x-------|---------------------|------PLAY-------8x----------|-------------------------------------|

#Intro 1B# h=hammer on p=pull off \=slide down
e|-----------------10p8p7p0-------------------------------------------10p8p7p0---------------------------------------------|
B|---7h8p7-7p5p0-7----------10--7-----------------------7h8p7-7p5p0-7----------10--7----7h8p7h8p7-7\\\---------------------|
G|-------------------------------------------------------------------------------------------------------------------------|
D|-------------------------------------------------------------------------------------------------------------------------|
A|-------------------------------------------------------------------------------------------------------------------------|
E|--|-------PLAY--------4x-------|---------------------|-1.-2.-3.-5.-7.--------------|-|-4.-----------|--------------------|

#Intro 1B (cont)# h=hammer on p=pull off b=bend
e|-----------------10p8p7p0-10h12------------------------------------------------------------------------------------------|
B|---7h8p7-7p5p0-7--------------------------------------7h8p7-7p5p0-7b-----------------------------------------------------|
G|-------------------------------------------------------------------------------------------------------------------------|
D|-------------------------------------------------------------------------------------------------------------------------|
A|-------------------------------------------------------------------------------------------------------------------------|
E|--|-6.-------------------------|---------------------|-8.--------------------------|-------------------------------------|

#Verse 1A&1B# Play 4x h=hammer on p=pull off
e|---------10--7-----8p7p0---------10p8------------------------------------------------------------------------------------|
B|---7h8p7-------7-8----------7h8p7----------------------------------------------------------------------------------------|
G|-------------------------------------------------------------------------------------------------------------------------|
D|-------------------------------------------------------------------------------------------------------------------------|
A|-------------------------------------------------------------------------------------------------------------------------|
E|--|----PLAY-------2x----|--|-PLAY-4x-|-----------------------------------------------------------------------------------|

#Chorus 1A# Play 2x *=Play 8x
e|---------------------------12--------------------------------------------------------------------------------------------|
B|-----*-----*-----*-----*-------13----------------------------------------------------------------------------------------|
G|---12----14----17----19------------10------------------------------------------------------------------------------------|
D|-------------------------------------------------------------------------------------------------------------------------|
A|---10----12----15----17--------------------------------------------------------------------------------------------------|
E|--------------------------|-PLAY-12x-|-----------------------------------------------------------------------------------|

#Chorus 1B# Play 2x *=Play 8x #=Play 12x
e|-------------------------------------------------------------------------------------------------------------------------|
B|-----*-----*----*-----*-----#--------------------------------------------------------------------------------------------|
G|---12----10----9-----7-----5---------------------------------------------------------------------------------------------|
D|-------------------------------------------------------------------------------------------------------------------------|
A|---10----8-----7-----5-----3---------------------------------------------------------------------------------------------|
E|-------------------------------------------------------------------------------------------------------------------------|

> Play Verse 1A&1B through Chorus 1A & Chorus 1B

#Bridge 1A#
e|-------------------------------------------------------------------------------------------------------------------------|
B|---7h8p7-7p5p0-7-8-10-h10-h10-h10-----7h8p7-7p5p0-7----8-----10----------------------------------------------------------|
G|-------------------------------------------------------------------------------------------------------------------------|
D|-------------------------------------------------------------------------------------------------------------------------|
A|-------------------------------------------------------------------------------------------------------------------------|
E|-------------------------------------|-----PLAY------------4x-----|------------------------------------------------------|

#Bridge 1B#
e|-----------------10p8p7p0---------------------------10p8p7p0-------------------------------------------------------------|
B|---7h8p7-7p5p0-7----------10--7-------7h8p7-7p5p0-7----------10--7-------------------------------------------------------|
G|-------------------------------------------------------------------------------------------------------------------------|
D|-------------------------------------------------------------------------------------------------------------------------|
A|-------------------------------------------------------------------------------------------------------------------------|
E|-------------------------------------|-----PLAY------------4x-----|------------------------------------------------------|

#Bridge 2A# !NOTE! There is a heavy delay effect - causes notes to overlap p=pull off /=slide up h=hammer on
e|--------------------------------12p9-10p0-9p0-10h12----------------------------------------------------------------------|
B|---10p0-7p0-10p0-7h8p0-10p0-7p0---------------------------7h8p0-10p0-7p0-10p0-7p0-----7h8p0-10p0-7p0-10p0-7p0------------|
G|------------------------------------------------------7/9-------------------------7/9------------------------------------|
D|-------------------------------------------------------------------------------------------------------------------------|
A|------------------------------------------------------5/7-------------------------5/7------------------------------------|
E|--|----------PLAY--------------------4x------------|-|---------------PLAY-------------------2x---------------|-----------|

#Bridge 2B# !NOTE! This starts on line 3 of Bridge 2A - Notice |-3.-4.-| >=pick scrape *=Play 8-10x #=Play 4-5x
e|--|-3.-4.-|--------------------------------------------------------------------------------------------------------------|
B|---------------------------------------------------------*--------------*-------------*-------------#--------#-----------|
G|---9~~~~------------------------------------------------9-------------11------------13-------------9-------11------------|
D|-------------------------------------------------------------------------------------------------------------------------|
A|---7~~~~------------------------------------------>>>>>-7-------------9-------------11-------------7-------9-------------|
E|-------------------------------------------------->>>>>------------------------------------------------------------------|

#Bridge 2A (cont.)# /=slide up h=hammer on p=pull off
e|-------------------------------------------------------------------------------------------------------------------------|
B|--------7h8p0-10p0-7p0-10p0-7p0-----7h8p0-10p0-7p0-10p0-7p0--------------------------------------------------------------|
G|----7/9-------------------------7/9--------------------------------------------------------------------------------------|
D|-------------------------------------------------------------------------------------------------------------------------|
A|----5/7-------------------------5/7--------------------------------------------------------------------------------------|
E|---|---------------PLAY-------------------2x---------------|-------------------------------------------------------------|

#Bridge 2B (cont.)# *=Play 8-10x #=Play 4-5x
e|-------------------------------------------------------------------------------------------------------------------------|
B|--------*-------------*-------------*-------------#--------#-------------------------------------------------------------|
G|------9-------------11------------13------------18-------17--------------------------------------------------------------|
D|-------------------------------------------------------------------------------------------------------------------------|
A|------7-------------9-------------11------------16-------15--------------------------------------------------------------|
E|-------------------------------------------------------------------------------------------------------------------------|

#Bass Line# !NOTE! This is the bass line that plays w/ drums only before Bridge 3A & 3B come in
G|-------------------------------------------------------------------------------------------------------------------------|
D|-------------------------------------------------------------------------------------------------------------------------|
A|-------------------------------------------------------*--------*--------------------------------------------------------|
E|------3p0---5h7---3p0---5h7---3p0---5h7---3p0---5h7---3--------2---------------------------------------------------------|

#Bridge 3A# ^=harmonic bend *=play 6-8x
e|-----|------------PLAY-------------------------4x-----------------|------------------------------------------------------|
B|--8^----------------------------------------------------*--------*-------------------------------------------------------|
G|------9-9---9-9---9-9---9-9---9-9---9-9---9-9---9-9---12-------11--------------------------------------------------------|
D|-------------------------------------------------------------------------------------------------------------------------|
A|------7-7---7-7---7-7---7-7---7-7---7-7---7-7---7-7---10-------9---------------------------------------------------------|
E|-------------------------------------------------------------------------------------------------------------------------|

#Bridge 3B# *=play 6-8x #=play 3-4x
e|-----|------------PLAY----------------4x-------------|-1.---------|-|-2.--------|-|-3.--------|-4.---------|-------------|
B|--8~----------------------------------------------------*--------*-----*---#---#-----*---#---#---*--------*--------------|
G|--9~--9-9---9-9---9-9---9-9---9-9---9-9---9-9---9-9---12-------16----12--16--14----12--14--16--12-------21---------------|
D|-------------------------------------------------------------------------------------------------------------------------|
A|--7~--7-7---7-7---7-7---7-7---7-7---7-7---7-7---7-7---10-------14----10--14--12----10--12--14--10-------19---------------|
E|-------------------------------------------------------------------------------------------------------------------------|

#Outro 1A# h=hammer on p=pull off
e|-------------------------------------------------------------------------------------------------------------------------|
B|---7h8p7-7p5p0-7----8-----10------7h8p7-7p5p0-7----8-----10--h10--h10--h10-----7h8p7-------------------------------------|
G|-------------------------------------------------------------------------------------------------------------------------|
D|-------------------------------------------------------------------------------------------------------------------------|
A|-------------------------------------------------------------------------------------------------------------------------|
E|--|-1.-3.-4.-------------------|-|-2.-------------------------------------|----------------------------------------------|

#Outro 1B# h=hammer on p=pull off
e|-----------------10p8p7p0-----------------------10p8p7p0-----------------------------------------------------------------|
B|---7h8p7-7p5p0-7----------10--7---7h8p7-7p5p0-7----------10--h10--h10--h10-----7h8p7-------------------------------------|
G|-------------------------------------------------------------------------------------------------------------------------|
D|-------------------------------------------------------------------------------------------------------------------------|
A|-------------------------------------------------------------------------------------------------------------------------|
E|--|-1.-3.-4.-------------------|-|-2.-------------------------------------|----------------------------------------------|
Tap to rate this tab
# A B C D E F G H I J K L M N O P Q R S T U V W X Y Z