Song name
# A B C D E F G H I J K L M N O P Q R S T U V W X Y Z

The Fall Of Troy - Whacko Jacko Steals The Elephant Mans Bones tab

Band: The Fall Of Troy
Albm: Doppelganger
Song: Whacko Jacko Steals The Elephant Man's Bones
Part: All

Guitar Interpretation by Andrew Cheong [20060715]

=================================================

=============
=== VERSE ===
=============

e|---------------4--0-----------------------|---------------4--0--------------7--5--0--|
B|---------------------4-----5--0--7--5--0--|---------------------4-----5--0-----------|
G|4-(4)-4-----------------------------------|4-----4-----------------------------------|
D|6-(6)-6-----------------------------------|6-----6-----------------------------------|
A|4-(4)-4-----------------------------------|4-----4-----------------------------------|
E|------------------------------------------|------------------------------------------|
                                                                                        \
 |1  +  2  +  3  +  4  +  5  +  6  +  7  +  |1  +  2  +  3  +  4  +  5  +  6  +  7  +  | x2
                                                                                        /
e|---------------7--0--------------12-11-0--|---------------12-0--7-----0-----0--14-0--|
B|---------------------9-----7--0-----------|------------------------------------------|
G|------------------------------------------|6-----6-----------------------------------|
D|2-----2-----------------------------------|6-----6-----------------------------------|
A|2-----2-----------------------------------|0-----0-----------------------------------|
E|0-----2-----------------------------------|5-----5-----------------------------------|

==============
=== Chorus ===
==============

e|--0-7-0-------0-7-0-----|--0-7-0------:4---------|    :----------|
B|--------------------4-5-|-------------:--0-4-5-7-|    :----------|
G|6-------6---6-----------|6-------6---6:----------| x6 :----------|
D|------------------------|-------------:----------| x4 :----------|
A|------------------------|-------------:----------|    :----------|
E|------------------------|-------------:----------|    :----------|

 |1 + 2 + 3 + 4 + 5 + 6 + |1 + 2 + 3 + 4:+ 5 + 6 + |    :+ 5 + 6 + |

[If you play the line above six times, don't play the line below...]
[If you play the line above four times, play the line below two times...]

e|21~~~~~~~~~~~~~~~~~~~~~~|21~~~~~~~~~~20~~~~~~~~~~|    :----------|
B|------------------------|-------------:----------|    :----------|
G|18~~~~~~~~~~~~~~~~~~~~~~|18~~~~~~~~~~17~~~~~~~~~~| x0 :----------|
D|------------------------|-------------:----------| x2 :----------|
A|------------------------|-------------:----------|    :----------|
E|------------------------|-------------:----------|    :----------|

=============
=== VERSE ===
=============

e|---------------4--0-----------------------|---------------4--0--------------7--5--0--|
B|---------------------4-----5--0--7--5--0--|---------------------4-----5--0-----------|
G|4-(4)-4-----------------------------------|4-----4-----------------------------------|
D|6-(6)-6-----------------------------------|6-----6-----------------------------------|
A|4-(4)-4-----------------------------------|4-----4-----------------------------------|
E|------------------------------------------|------------------------------------------|
                                                                                        \
 |1  +  2  +  3  +  4  +  5  +  6  +  7  +  |1  +  2  +  3  +  4  +  5  +  6  +  7  +  | x2
                                                                                        /
e|---------------7--0--------------12-11-0--|---------------12-0--7-----0-----0--14-0--|
B|---------------------9-----7--0-----------|------------------------------------------|
G|------------------------------------------|6-----6-----------------------------------|
D|2-----2-----------------------------------|6-----6-----------------------------------|
A|2-----2-----------------------------------|0-----0-----------------------------------|
E|0-----2-----------------------------------|5-----5-----------------------------------|

==============
=== Chorus ===
==============

e|--0-7-0-------0-7-0-----|--0-7-0------:4---------|    :----------|
B|--------------------4-5-|-------------:--0-4-5-7-|    :----------|
G|6-------6---6-----------|6-------6---6:----------| x6 :----------|
D|------------------------|-------------:----------| x4 :----------|
A|------------------------|-------------:----------|    :----------|
E|------------------------|-------------:----------|    :----------|

 |1 + 2 + 3 + 4 + 5 + 6 + |1 + 2 + 3 + 4:+ 5 + 6 + |    :+ 5 + 6 + |

[If you play the line above six times, don't play the line below...]
[If you play the line above four times, play the line below two times...]

e|21~~~~~~~~~~~~~~~~~~~~~~|21~~~~~~~~~~20~~~~~~~~~~|    :----------|
B|------------------------|-------------:----------|    :----------|
G|18~~~~~~~~~~~~~~~~~~~~~~|18~~~~~~~~~~17~~~~~~~~~~| x0 :----------|
D|------------------------|-------------:----------| x2 :----------|
A|------------------------|-------------:----------|    :----------|
E|------------------------|-------------:----------|    :----------|

================
=== Bridge I ===
================

e|------------------------|------------------------|------------------------|------------------------|
B|------------------------|------------------------|------------------------|------------------------|
G|--6---------6---6--(6)--|--6---------4---4--(4)--|--6---------6---6--(6)--|--6---------4---4--(4)--|
D|----5-6-0---------------|----5-6-0---------------|----5-6-0---------------|----5-6-0---------------|
A|4-----------7---7--(7)--|4-----------5---5--(5)--|4-----------7---7--(7)--|4-----------5---5--(5)--|
E|------------------------|------------------------|------------------------|------------------------|

 |1 + 2 + 3 + 4 + 5 + 6 + |1 + 2 + 3 + 4 + 5 + 6 + |1 + 2 + 3 + 4 + 5 + 6 + |1 + 2 + 3 + 4 + 5 + 6 + |

e|------------------------|------------------------|------------------------|----------*-------------|
B|------------------------|------------------------|------------------------|------------------------|
G|--6---------7-0-----7-0-|--6-----------------4-0-|--6---------7-0-----7-0-|--6---------------------|
D|----5-6-0-0-----7-0-----|----5-6-0-0-----5-0-----|----5-6-0-0-----7-0-----|----5-6-0---------------|
A|4-----------------------|4-----------5-0---------|4-----------------------|4-----------------------|
E|------------------------|------------------------|------------------------|------------------------|

==============
=== Chorus ===
==============

e|--0-7-0-------0-7-0-----|--0-7-0------:4---------|    :----------|
B|--------------------4-5-|-------------:--0-4-5-7-|    :----------|
G|6-------6---6-----------|6-------6---6:----------| x4 :----------|
D|------------------------|-------------:----------| x2 :----------|
A|------------------------|-------------:----------| x0 :----------|
E|------------------------|-------------:----------|    :----------|

 |1 + 2 + 3 + 4 + 5 + 6 + |1 + 2 + 3 + 4:+ 5 + 6 + |    :+ 5 + 6 + |

[If you play the line above four times, don't play the line below...]
[If you play the line above two times, play the line below two times...]
[If you don't play the line above, play the line below four times...]

e|21~~~~~~~~~~~~~~~~~~~~~~|21~~~~~~~~~~20~~~~~~~~~~|    :----------|
B|------------------------|-------------:----------|    :----------|
G|18~~~~~~~~~~~~~~~~~~~~~~|18~~~~~~~~~~17~~~~~~~~~~| x0 :----------|
D|------------------------|-------------:----------| x2 :----------|
A|------------------------|-------------:----------| x4 :----------|
E|------------------------|-------------:----------|    :----------|

=================
=== Interlude ===
=================

e|----------0-7-0-|----------0-7-0-|----------0-5---|--4-------------|
B|--4-0-5-0-------|--4-0-5-0-------|--4-0-5-0-------|--------7---5---|
G|6---6-----6---6-|6---6-----6---6-|5---5-----5---5-|5---5-5---5---5-| x6
D|----------------|----------------|----------------|----------------|
A|----------------|----------------|----------------|----------------| [Gradual Release/Crescendo...]
E|----------------|----------------|----------------|----------------|

 |1 + 2 + 3 + 4 + |1 + 2 + 3 + 4 + |1 + 2 + 3 + 4 + |1 + 2 + 3 + 4 + |

e|---------------0--19-0--|---------------0--19-0--|---------------0--17----|---16-------------------|
B|---16-0--17-0-----------|---16-0--17-0-----------|---16-0--17-0-----------|------------19----17----|
G|18----18-------18----18-|18----18-------18----18-|17----17-------17----17-|17----17-17----17----17-|
D|------------------------|------------------------|------------------------|------------------------|
A|------------------------|------------------------|------------------------|------------------------|
E|------------------------|------------------------|------------------------|------------------------|

 |1  +  2  +  3  +  4  +  |1  +  2  +  3  +  4  +  |1  +  2  +  3  +  4  +  |1  +  2  +  3  +  4  +  |

e|---------------0--19-0--|---------------0--19-0--|------------------------|------------------------|
B|---16-0--17-0-----------|---16-0--17-0-----------|------------------------|19b~~~~~~~~~~~~~~~~~~~~~|
G|18----18-------18----18-|18----18-------18----18-|17~~~~~~~~~~~~~~~~~~~~~~|17b~~~~~~~~~~~~~~~~~~~~~|
D|------------------------|------------------------|------------------------|------------------------|
A|------------------------|------------------------|------------------------|------------------------|
E|------------------------|------------------------|------------------------|------------------------|

e|--------------------------------|--------------------------------|
B|--------------------------------|--------------------------------|
G|8-------------------------------|--------------------------------| x4
D|8----7----8---------10---9----10|---9----10--9-------------------|
A|6----7----8---------10---9----10|---9----10--9-------------------|
E|-----5----6----0----8----7----8-|---7----8---7---8--8--8-5--5--5-|

 |1   +   2   +   3   +   4   +   |1   +   2   +   3  +  a 4  +  a |

e|--------------------------------|--------------------------------|
B|--------------------------------|--------------------------------|
G|----------------15--------------|--------------------------------|
D|--------------------------------|--------------------------------|
A|----------------13--------------|--------------------------------|
E|0-------------------------------|0---------------6--5--4-3--2--1-|\
                                                                     x2
e|--------------------------------|--------------------------------|/
B|--------------------------------|--------------------------------|
G|----------------15--------------|--------------------------------|
D|--------------------------------|----4---5-------8---8---5---4---|
A|----------------13--------------|----4---5-------8---8---5---4---|
E|0-------------------------------|0---2---3---0---6---5---3---2---|

 |1   +   2   +   3   +   4   +   |1   +   2   +   3   +   4   +   |


e|   15          15 13
B|
G|15 15 15 14 15       15/17
D|
A|13 13
E|0

e|13          12       13    12       12    12    12
B|   10 11 10    11 10    11    11 10    11    11
G|
D|
A|
E|

e|--3-0-2-0---3-0-|--3-0-5-0---3-0-|--3-0-2-0---3-0-|--3-0-5-0---3-0-|
B|5---5-----5---5-|4---4-----4---4-|1---1-----1---1-|0---0-----0---0-|
G|----------------|----------------|----------------|----------------| x2
D|----------------|----------------|----------------|----------------|
A|----------------|----------------|----------------|----------------|
E|----------------|----------------|----------------|----------------|

 |1 + 2 + 3 + 4 + |1 + 2 + 3 + 4 + |1 + 2 + 3 + 4 + |1 + 2 + 3 + 4 + |

e|--3-0-2-0---3-0-|--3-0-5-0---3-0-|--3-0-2-0---3-0-|--3-0-5-0---3-0-|
B|5---------5-----|4---------4-----|1---------1-----|0---------0-----|
G|----------------|----------------|----------------|----------------| x4
D|----------------|----------------|----------------|----------------|
A|----------------|----------------|----------------|----------------|
E|----------------|----------------|----------------|----------------|

e|--3-0-2-0---3-0-|--3-0-5-0---3-0-|--3-0-2-0---3-0-|--5-3-0---0-10-8-0|
B|5---------5-----|4---------4-----|1---------1-----|4-------0---------|
G|----------------|----------------|----------------|------------------|
D|----------------|----------------|----------------|------------------|
A|----------------|----------------|----------------|------------------|
E|----------------|----------------|----------------|------------------|

 |1 + 2 + 3 + 4 + |1 + 2 + 3 + 4 + |1 + 2 + 3 + 4 + |1 + 2 + 3 + 4     |

e|--3-0-2-0---3-0-|--3-0-5-0---3-0-|--3-0-2-0---3-0-|??????????????????|
B|5---------5-----|4---------4-----|1---------1-----|??????????????????|
G|----------------|----------------|----------------|I'll figure this  |
D|----------------|----------------|----------------|measure out some  |
A|----------------|----------------|----------------|other time        |
E|----------------|----------------|----------------|------------------|

 |1 + 2 + 3 + 4 + |1 + 2 + 3 + 4 + |1 + 2 + 3 + 4 + |1 + 2 + 3 + 4     |

e|--3-0-2-0---3-0-|--3-0-5-0---3-0-|--3-0-2-0---3-0-|--5-3-0---0-10-8-0|
B|5---------5-----|4---------4-----|1---------1-----|4-------0---------|
G|----------------|----------------|----------------|------------------|
D|----------------|----------------|----------------|------------------|
A|----------------|----------------|----------------|------------------|
E|----------------|----------------|----------------|------------------|

 |1 + 2 + 3 + 4 + |1 + 2 + 3 + 4 + |1 + 2 + 3 + 4 + |1 + 2 + 3 + 4     |

e|--3-0-2-0---3-0-|--3-0-5-0---3-0-|----------------|----------------|
B|5---------5-----|4---------4-----|1111111111111111|0000000000000---|
G|----------------|----------------|----------------|----------------|
D|----------------|----------------|----------------|----------------|
A|----------------|----------------|----------------|----------------|
E|----------------|----------------|----------------|----------------|

 |1 + 2 + 3 + 4 + |1 + 2 + 3 + 4 + |1 + 2 + 3 + 4 + |1 + 2 + 3 + 4 + |

e|------------|------------|------------|------------------|
B|------------|------------|------------|------------------|
G|------15----|---15----15-|------12----|---12----12-14-20-|
D|------------|------------|------------|------------------|
A|------13----|---13----13-|------10----|---10----10-12-18-|
E|000000---000|000---000---|000000---000|000---000---------|
                                                            \
 |1+a2+a3+a4+a|1+a2+a3+a4+a|1+a2+a3+a4+a|1+a2+a3+a4  +  a  | x2
                                                            /
e|------------|------------|------------|------------------|
B|------------|------------|------------|------------------|
G|------15----|---15----15-|------12----|9-9-9-7--7--------|
D|------------|------------|------------|------------------|
A|------13----|---13----13-|------10----|7-7-7-5--5--------|
E|000000---000|000---000---|000000---000|------------------|

e|------------------------|------------------------|------------------------|------------------------|
B|------------------------|------------------------|------------------------|------------------------|
G|9-----------------------|------------------------|------------------------|------------------------|
D|------------------------|------------------------|------------------------|------------------------|
A|7-----------------------|------------------------|------------------------|------------------------|
E|------------------------|------------------------|------------------------|------------------------|

 |1 + 2 + 3 + 4 + 5 + 6 + |1 + 2 + 3 + 4 + 5 + 6 + |1 + 2 + 3 + 4 + 5 + 6 + |1 + 2 + 3 + 4 + 5 + 6 + |

e|------------------------------------------------|------------------------------------------------|
B|------------------------------------------------|------------------------------------------------|
G|9-------9/--10\-9-------9-------9/--10\-9-------|9-------9/--10\-9-------9-------9/--10\-9-------|
D|------------------------------------------------|------------------------------------------------|
A|7-------7/--8\--7-------7-------7/--8\--7-------|7-------7/--8\--7-------7-------7/--8\--7-------|
E|----0---------------0-------0---------------0---|----0---------------0-------0---------------0---|

 |1   +   2   +   3   +   4   +   5   +   6   +   |1   +   2   +   3   +   4   +   5   +   6   +   |

e|------------------------------------------------|------------------------------------------------|
B|------------------------------------------------|------------------------------------------------|
G|9-------9/--10\-9-------9-------9/--10\-9-------|9-------9/--10\-9-------9-2121212121212121212121|
D|------------------------------------------------|------------------------------------------------|
A|7-------7/--8\--7-------7-------7/--8\--7-------|7-------7/--8\--7-------7-1919191919191919191919|
E|----0---------------0-------0---------------0---|----0---------------0---------------------------|

e|------------------------------------------------|------------------------------------------------|
B|------------------------------------------------|------------------------------------------------|
G|9-------9/--10\-9-------9-------9/--10\-9-------|9-------9/--10\-9-------9-------9/--10\-9-------|
D|------------------------------------------------|------------------------------------------------|
A|7-------7/--8\--7-------7-------7/--8\--7-------|7-------7/--8\--7-------7-------7/--8\--7-------|
E|------------------------------------------------|------------------------------------------------|

 |1   +   2   +   3   +   4   +   5   +   6   +   |1   +   2   +   3   +   4   +   5   +   6   +   |

e|------------------------------------------------|------------------------------------------------|
B|------------------------------------------------|------------------------------------------------|
G|12------12/-14\-12------12------12/-14\-12------|10------10/-12\-10------9-------9/--10\-9-------|
D|------------------------------------------------|------------------------------------------------|
A|10------10/-12\-10------10------10/-12\-10------|7-------7/--8\--7-------7-------7/--8\--7-------|
E|------------------------------------------------|------------------------------------------------|


There's more stuff here but I'll write it down later.  It's basically the measures above except
in 4/4 time, so it's not hard to figure out.


e|--------------------------------|--------------------------------|
B|--------------------------------|--------------------------------|
G|8-------------------------------|--------------------------------| x4
D|8----7----8---------10---9----10|---9----10--9-------------------|
A|6----7----8---------10---9----10|---9----10--9-------------------|
E|-----5----6----0----8----7----8-|---7----8---7---8--8--8-5--5--5-|

 |1   +   2   +   3   +   4   +   |1   +   2   +   3  +  a 4  +  a |

e|--------------------------------||
B|--------------------------------||
G|--------------------------------||
D|2-------------------------------||
A|2-------------------------------||
E|0-------------------------------||
Tap to rate this tab
# A B C D E F G H I J K L M N O P Q R S T U V W X Y Z