Song name
# A B C D E F G H I J K L M N O P Q R S T U V W X Y Z

The Fall Of Troy - We Better Learn To Hotwire A Uterus tab

#----------------------------------PLEASE NOTE---------------------------------#
#This file is the author's own work and represents their interpretation of the #
#song. You may only use this file for private study, scholarship, or research. #
#------------------------------------------------------------------------------#

WE BETTER LEARN TO HOTWIRE A UTERUS
As recorded by The Fall of Troy
(From the 2005 Album DOPPELGANGER)

Transcribed by guitarted
	

Words and Music by The Fall of Troy
Arranged by The Fall of Troy

Gtr I (D A D G B E) - 'Guitar I'
Gtr II (D A D G B E) - 'Guitar II'
Gtr III (D A D G B E) - 'Digitech Whammy Pedal'

 Intro
  Moderate Q=120
  N.C.
 3/4
  Gtr I
   S  S  S  E  S  S  S  S  S  S  S    S  S  S  E  S  S  S  S  S  S  S
|----------------------------------|----------------------------------|
|----------------------------------|----------------------------------|
|----16----18----16----18----16----|----16----18----16----18----16----|
|----------------------------------|----------------------------------|
|-17----17----17----17----17----17-|-17----17----17----17----17----17-|
|----------------------------------|----------------------------------|


  N.C.
                                     PM---|      PM---|
   S  S  S  E  S  S  S  S  S  S S    S  S  S  E  S  S  S  S  S  S S
|---------------------------------|----------16----------16---------|
|---------------------------------|----17----------17----------17---|
|----14----16----14----16----14---|-14----14----14----14----14------|
|---------------------------------|---------------------------------|
|-16----16----16----16----16------|---------------------------------|
|---------------------------------|---------------------------------|


  N.C.
  Gtrs I, II
   S  S  S  E  S  S  S  S  S  S  S    S  S  S  E  S  S  S  S  S  S  S
|----19----21----19----21----19----|----19----21----19----21----19----|
|----------------------------------|----------------------------------|
|-19----19----19----19----19----19-|-19----19----19----19----19----19-|
|----------------------------------|----------------------------------|
|----------------------------------|----------------------------------|
|----------------------------------|----------------------------------|


  N.C.
   S  S  S  E  S  S  S  S  S  S  S    S  S  S  E  S  S  S  S  S  S  S
|----17----19----17----19----17----|----------16----------16----------|
|----------------------------------|----17----------17----------17----|
|-18----18----18----18----18----18-|-14----14----14----14----14----14-|
|----------------------------------|----------------------------------|
|----------------------------------|----------------------------------|
|----------------------------------|----------------------------------|


  N.C.
   S  S  S  E  S  S  S  S  S  S  S    S  S  S  E  S  S  S  S  S  S  S
|----19----21----19----21----19----|----19----21----19----21----19----|
|----------------------------------|----------------------------------|
|-19----19----19----19----19----19-|-19----19----19----19----19----19-|
|----------------------------------|----------------------------------|
|----------------------------------|----------------------------------|
|----------------------------------|----------------------------------|


  N.C.
   S  S  S  E  S  S  S  S  S  S  S   S S S E S S S S S S S
|----17----19----17----19----17----|-------4-------4-------|
|----------------------------------|---5-------5-------5---|
|-18----18----18----18----18----18-|-2---2---2---2---2---2-|
|----------------------------------|-----------------------|
|----------------------------------|-----------------------|
|----------------------------------|-----------------------|


   Verse
    N.C.
     |--3--|             |--3--|
     S  S  S  S  S  S S  S  S  S  S  S  S S
||--14p12p10----10------14p12p10----10------|
||o----------14----12------------14----12---|
||------------------------------------------|
||------------------------------------------|
||o-----------------------------------------|
||------------------------------------------|


   |--3--|             |--3--|
   S  S  S  S  S  S S  S  S  S  S  S  S S
|-14p12p10----10------14p12p10----10------|
|----------14----12------------14----12---|
|-----------------------------------------|
|-----------------------------------------|
|-----------------------------------------|
|-----------------------------------------|


  N.C.
  Gtr I
   |--3--|             |--3--|
   S  S  S  S  S  S S  S  S  S  S  S  S S
|-14p12p10----10------14p12p10----10------|
|----------14----11------------14----11---|
|-----------------------------------------|
|-----------------------------------------|
|-----------------------------------------|
|-----------------------------------------|
|
| Gtr II
|  |--3--|             |--3--|
|  S  S  S  S  S  S S  S  S  S  S  S  S S
|-14p12p10----10------14p12p10----10------|
|----------14----11------------14----11---|
|-----------------------------------------|
|-----------------------------------------|
|-----------------------------------------|
|-----------------------------------------|


  S   S   S   S   S   S   S   S   S   S   S S
|-----------------------------------------------||
|----------------------------------------------o||
|-----------------------------------------------||
|-----------------------------------------------||
|-5h==8---5h==8---5h==8---4h==7---4h==7---4----o||
|-----------------------------------------------||
|
| |--3--| |--3--| |--3--| |--3--| |--3--|
| S S   S S S   S S S   S S S   S S S   S E
|-----------------------------------------------||
|----------------------------------------------o||
|-----------------------------------------------||
|-----------------------------------------------||
|-5h8p==5-5h8p==5-5h8p==5-4h7p==4-4h7p==4-4----o||
|-----------------------------------------------||


    N.C.
   7/8
    Gtrs I, II
     S  S  S  S  S  S S  S  S  S  S  S  S S
||--14-12-10----10------14-12-10----10------|
||o----------14----12------------14----12---|
||------------------------------------------|
||------------------------------------------|
||o-----------------------------------------|
||------------------------------------------|


   S  S  S  S  S  S S  S  S  S  S  S  S S
|-14-12-10----10------14-12-10----10------|
|----------14----12------------14----12---|
|-----------------------------------------|
|-----------------------------------------|
|-----------------------------------------|
|-----------------------------------------|


  N.C.                                      N.C.(Dm)
                                           3/4
                                              PM----|    PM   PM   PM
   S  S  S  S  S  S S  S  S  S  S  S  S S   E S S S S  S S  S S  S S
|-14-12-10----10------14-12-10----10------|---------------------------||
|----------14----11------------14----11---|--------------------------o||
|-----------------------------------------|-7---------10---10---10----||
|-----------------------------------------|---------------------------||
|-----------------------------------------|-5----------8----8----8---o||
|-----------------------------------------|---0-0-0-0--0-0----0----0--||


 Interlude
  N.C.(Dm)
    PM----|
  E S S S S  S S  S S  S S
|--------------------------|
|--------------------------|
|-7---------10---10---10---|
|--------------------------|
|-5----------8----8----8---|
|---0-0-0-0----0----0----0-|


    PM----|                    PM----|
  E S S S S  S S  S S  S S   E S S S S  S S  S S  S S
|--------------------------|--------------------------|
|--------------------------|--------------------------|
|-7---------10---10---10---|-7---------10---10---10---|
|--------------------------|--------------------------|
|-5----------8----8----8---|-5----------8----8----8---|
|---0-0-0-0----0----0----0-|---0-0-0-0----0----0----0-|


  Q=84
  D5              F5      G5   D5              F5    G5
                   PM-----|                    PM----|
  S S S S S S S S  S.  S.  S   S S S S S S S S S. S. S
|----------------------------|-------------------------|
|----------------------------|-------------------------|
|-7-------7-------10--10--12-|-7-------7---------------|
|-7-------7-------10--10--12-|-7-------7-------3--3--5-|
|-5-0-0-0-5-0-0-0--8---8--10-|-5-0-0-0-5-0-0-0-3--3--5-|
|---0-0-0---0-0-0------------|---0-0-0---0-0-0-3--3--5-|


  D5              F5      G5   D5              N.C.
                   PM-----|                     ~~~
  S S S S S S S S  S.  S.  S   S S S S S S S S  Q
|----------------------------|----------------------|
|----------------------------|----------------------|
|-7-------7-------10--10--12-|-7-------7------------|
|-7-------7-------10--10--12-|-7-------7-------[8]--|
|-5-0-0-0-5-0-0-0--8---8--10-|-5-0-0-0-5-0-0-0------|
|---0-0-0---0-0-0------------|---0-0-0---0-0-0------|


   Breakdown
    Q=68              Q=64    Q=68              Q=75
    N.C.(Dm)          F5  G5  N.C.(Dm)            F5      G5
   5/8                       7/8
       PM--|    PM--|            PM--|    PM--|
                      |-3-|
     S S S S  S S S S S S S    S S S S  S S S S T S T S T S T S
||--------------------------|------------------------------------||
||o--9--------9-------------|--9--------9-----------------------o||
||--12-------12-------------|-12-------12------------------------||
||--------------------------|------------------------------------||
||o----0-0-0----0-0-0-3-3-5-|----0-0-0----0-0-0-x-3-x-3-x-5-x-5-o||
||-----0-0-0----0-0-0-3-3-5-|----0-0-0----0-0-0-x-3-x-3-x-5-x-5--||


   Theme
    Double Time Q=150
    N.C.
   4/4
                                     |--3---|    |--3---|
    E  S  S S S  S   S  E E E E   E  S   S  S E  S   S  S E E E E
||-----3p=0---5p=0---0--3p0-2p0-|----2h==3p=2----2h==3p=2-0-------|
||o-0-(0)---0-0-(0)-(0)---------|---------------------------3-5-0-|
||------------------------------|-3-(3)-(3)---0-(0)-(0)-----------|
||------------------------------|---------------------------------|
||o-----------------------------|---------------------------------|
||------------------------------|---------------------------------|


  N.C.
 5/8
   PM------------------------------------
   E  E  E  S  S  e    E  E  E  S  S  e
|-------------------|-------------------|
|----10----13----10-|----10----13----10-|
|-------11----11----|-------11----11----|
|-10----------------|-10----------------|
|-------------------|-------------------|
|-------------------|-------------------|


 ------------------------------------|
   E  E  E  S  S  e    E  E  E  S  S  e
|-------------------|-------------------|
|----10----13----10-|----10----13----10-|
|-------11----11----|-------11----11----|
|-10----------------|-10----------------|
|-------------------|-------------------|
|-------------------|-------------------|


  N.C.
 3/4
   E  S  S  S  S  S  S  E  E
|----------------------------|
|----------------------12----|
|----11h13----11h13-------13-|
|-11-------11-------11-------|
|----------------------------|
|----------------------------|


   E  S  S  S  S  S  S  E  E    E  S  S  S  S  S  S  E  E
|----------------------------|-----------------------------|
|----------------------12----|----------------------12-----|
|----11h13----11h13-------13-|----11h13----11h13-------13--|
|-12-------12-------12-------|-----------------------------|
|----------------------------|-12-------12-------12--------|
|----------------------------|-----------------------------|


  N.C.
 4/4
  S S S S S S S S S S S  S S  S  S S
|--------------------------8h10h12---|
|-------------------7h9h11-----------|
|-------------5h7h9------------------|
|-------4h6h8------------------------|
|-3h5h7------------------------------|
|------------------------------------|


   |--3--|  |--3--|
   S  S  S  S  S  S  E E  S  S S  S S  S S +S
|-12-12-12-12-12-12-12---15p14p0----------------|
|--------------------------------15p0-12p0-(0)--|
|----------------------0------------------------|
|-----------------------------------------------|
|-----------------------------------------------|
|-----------------------------------------------|


  N.C.
   S  S S S  S  S S S  S  S S S  S  S S S
|-----------------------------------------|
|-10s12-0-0-10s12-0-0-10s12-0-0-10s12-0-0-|
|-----------------------------------------|
|-----------------------------------------|
|-----------------------------------------|
|-----------------------------------------|


  |-3-| |-3-|
  S S S S S S E S S  S S S  S S  S S +S
|-----------------------------------------|
|-8-8-8-8-8-8-8-0-0-10p8p0-12p0-10p0-(0)--|
|-----------------------------------------|
|-----------------------------------------|
|-----------------------------------------|
|-----------------------------------------|


  N.C.
  S S S S S S S S S S S S S S S S
|---------------------------------|
|---------------------------------|
|-7s9-0-0-7s9-0-0-7s9-0-0-7s9-0-0-|
|---------------------------------|
|---------------------------------|
|---------------------------------|


                                        6/4
  S S S S S S S S S S S  S S  S  S S     W
|--------------------------8h10h12-0--||------|
|-------------------7h9h11-----------o||------|
|-------------5h7h9-------------------||------|
|-------4h6h8-------------------------||------|
|-3h5h7------------------------------o||------|
|-------------------------------------||------|


 Outro
  Moderate Q=105
  Fmaj7N.C.  BbmajN.C.4     Fmaj7N.C.
 4/4
  Gtrs I, II, III                      Gtrs I, II
                                       |-3-| |-3-|
  E. E S S S E. E  S  S S   E. E S S S E E E E E E
|------5s7-0-5/---10s12-0-|------5s7-0-8-7---------|
|-5/---4s6-0-4/----9s11-0-|-5/---4s6-0-----8---8s4-|
|-2/-------0-3/---------0-|-2/-------0-------9-----|
|-3/----------------------|-3/---------------------|
|-------------------------|------------------------|
|-------------------------|------------------------|


  Fmaj7N.C.  BbmajN.C.4     Fmaj7N.C.
  Gtrs I, II, III                      Gtrs I, II
                                       |-3--| |--3--|
  E. E S S S E. E  S  S S   E. E S S S E E  E E  E  E
|------5s7-0-5/---10s12-0-|------5s7-0-8-7-10-8-12-10-|
|-5/---4s6-0-4/----9s11-0-|-5/---4s6-0----------------|
|-2/-------0-3/---------0-|-2/-------0----------------|
|-3/----------------------|-3/------------------------|
|-------------------------|---------------------------|
|-------------------------|---------------------------|


    Fmaj7N.C.  Bbmaj7sus4     Fmaj7                      E5D5
    Gtrs I, II, III                      Gtrs I, II
                                         |-3-| |-3-|
    E. E S S S E. E  S  S S   E. E S S S E E E E E E     E E H.
||-------5s7-0-5/---10s12-0-|------5s7-0-8-7----------||-----------*|
||o-5/---4s6-0-4/----9s11-0-|-5/---4s6-0-----8---8s4-o||-----------*|
||--2/-------0-3/---------0-|-2/-------0-------9------||-----------*|
||--3/----------------------|-3/----------------------||-2s0-------*|
||o-------------------------|------------------------o||-2s0-------*|
||--------------------------|-------------------------||-2s0-------*|



Duration Legend
---------------
W - whole; H - half; Q - quarter; E - 8th; S - 16th; T - 32nd; X - 64th; a - acciaccatura
+ - note tied to previous; . - note dotted; .. - note double dotted
Uncapitalized letters represent notes that are staccato (1/2 duration)
Irregular groupings are notated above the duration line
Duration letters will always appear directly above the note/fret number it represents the
duration for.  Duration letters with no fret number below them represent rests.  Multi-
bar rests are notated in the form Wxn, where n is the number of bars to rest for.  Low
melody durations appear below the staff

Tablature Legend
----------------
 h   - hammer-on
 p   - pull-off
 b   - bend
 pb  - pre-bend
 r   - bend release (if no number after the r, then release immediately)
 /\  - slide into or out of (from/to "nowhere")
 s   - legato slide
 S   - shift slide
 - natural harmonic
[n]  - artificial harmonic
n(n) - tapped harmonic
 ~   - vibrato
 tr  - trill
 T   - tap
 TP  - trem. picking
 PM  - palm muting
\n/  - tremolo bar dip; n = amount to dip
 \n  - tremolo bar down
 n/  - tremolo bar up
/n\  - tremolo bar inverted dip
 =   - hold bend; also acts as connecting device for hammers/pulls
 <> - volume swell (louder/softer)
 x   - on rhythm slash represents muted slash
 o   - on rhythm slash represents single note slash

Misc Legend
-----------
 |  - bar
||  - double bar
||o - repeat start
o|| - repeat end
*|  - double bar (ending)
 :  - bar (freetime)
 $  - Segno
 &  - Coda
Tempo markers -  = BPM(8/16=s8/s16), where s8 = swing 8ths, s16 = swing 16ths

Tap to rate this tab
# A B C D E F G H I J K L M N O P Q R S T U V W X Y Z