Song name
# A B C D E F G H I J K L M N O P Q R S T U V W X Y Z

The Fall Of Troy - You Gotta Death Wish Johnny Truant tab

#----------------------------------PLEASE NOTE---------------------------------#
#This file is the author's own work and represents their interpretation of the #
#song. You may only use this file for private study, scholarship, or research. #
#------------------------------------------------------------------------------#

YOU GOTTA DEATH WISH, JOHNNY TRUANT?
As recorded by The Fall of Troy
(From the 2005 Album DOPPELGANGER)

Transcribed by George Wilson
	

Words and Music by The Fall of Troy
Arranged by The Fall of Troy

Gtr I (E A D G B E) - 'lead - 1st'
Gtr II (E A D G B E) - 'lead - 2nd'

 Intro
  Q=106
  N.C.            Csus2   A5
 4/4
  Gtr I
  S S S S S S S S  E.     E.     E
|------------------------------------|
|---8p7------------------------------|
|-------9p7p0------------------------|
|-------------7h9-12\-----7------7---|
|-7---------------10\-----7------7---|
|------------------8\-----5------5---|
|
| Gtr II
| S S S S S S S S  S  S S S  S S S S
|------------------------------------|
|---8---8---8---8-----8---8----8---8-|
|------------------------------------|
|------------------------------------|
|-7---7---7---7----7----7----7---7---|
|------------------------------------|


  N.C.            G5     C5
  S S S S S S S S E.      T T T T T T  E
|-------------------------------------------|
|-------------------------------------------|
|---5p4-------------------------------------|
|-7-----7p5p0-2s5-5------10-x-x-x-x-x-10----|
|-----------------5------10-x-x-x-x-x-10----|
|-----------------3-------8-x-x-x-x-x--8----|
|
| S S S S S S S S S  S S  S   S   S    S S
|-------------------------------------------|
|---8---8---8---8----8----8-------8------8--|
|-------------------------------------------|
|-------------------------------------------|
|-7---7---7---7---7----7------7--------7----|
|-------------------------------------------|


  N.C.            CsusA5     C         N.C.          A5        G5
                            6/8
  Gtrs I, II
  S S S S S S S S  E. E. E   S S S E S S S S S S S   S S S E S S S S E S
|--------------------------|-----------------------|---------------------||
|---8p7--------------------|-----------------0h3p0-|---------------------||
|-------9p7p0--------------|-5-5---5-5-4h5p0-------|-2-2---2-2-----------||
|-------------7h9-12\-7--7-|-x-x---x-x-------------|-2-2---2-2-5-5---5-5-||
|-7---------------10\-7--7-|-3-3---3-3-------------|-0-0---0-0-5-5---5-5-||
|------------------8\-5--5-|-----------------------|-----------3-3---3-3-||


   Main Theme
    N.C.            CsusA5     N.C.            G5 G5
   4/4
    Gtrs I, II
    S S S S S S S S  E. E. E   S S S S S S S S E.  T T T T T T  E
||---------------------------|-------------------------------------|
||o---8p7--------------------|-------------------------------------|
||--------9p7p0--------------|---5p4-------------------------------|
||--------------7h9-12\-7--7-|-7-----7p5p0-2s5-5--10-x-x-x-x-x-10--|
||o-7---------------10\-7--7-|-----------------5--10-x-x-x-x-x-10--|
||-------------------8\-5--5-|-----------------3---8-x-x-x-x-x--8--|


  N.C.            CsusA5     C         N.C.          A5        G5
                            6/8
  S S S S S S S S  E. E. E   S S S E S S S S S S S   S S S E S S S S E S
|--------------------------|-----------------------|-----------------------||
|---8p7--------------------|-----------------0h3p0-|----------------------o||
|-------9p7p0--------------|-5-5---5-5-4h5p0-------|-2-2---2-2-------------||
|-------------7h9-12\-7--7-|-x-x---x-x-------------|-2-2---2-2-5-5---5-5---||
|-7---------------10\-7--7-|-3-3---3-3-------------|-0-0---0-0-5-5---5-5--o||
|------------------8\-5--5-|-----------------------|-----------3-3---3-3---||


  C             N.C.              A5              G5
  Gtr I
   S  S S  E  S  S  S S  S S  S    S  S S  S  S S  S  S S  S  S  S
|-------------------------------|----------------------------------||
|------------------------0h3p=0-|----------------------------------||
|--5--5----5--5--4h=5p0---------|--2--2----2--2--------------------||
|--x--x----x--x-----------------|--2--2----2--2----5--5----5--5--5-||
|--3--3----3--3-----------------|--0--0----0--0----5--5----5--5--5-||
|-------------------------------|------------------3--3----3--3--3-||
|
| Gtr II
|  S  S S  E  S  S  S S  E    S    S  S S  S  S S  S  S S  S  S  S
|-------------------------------|----------------------------------||
|-------------------------------|----------------------------------||
|-17-17---17-17-16-16---16---16-|-14-14---14-14---12-12---12-12-12-||
|--x--x----x--x--x--x----x----x-|--x--x----x--x----x--x----x--x--x-||
|-15-15---15-15-14-14---14---14-|-12-12---12-12---10-10---10-10-10-||
|-------------------------------|----------------------------------||


   Bridge
    E5                   N.C.
   3/4                         7/8
    Gtrs I, II
       PM--------------|           PM--|
    Q  T T T T T T T T E  S S   Q  S S S  S S S  S S S S
||-----------------------10p7-|----------10p7---12---7p0-|
||o---------------------------|-8-------------8----8-----|
||----------------------------|--------------------------|
||--2--2-2-2-2-2-2-2-2-2------|--------------------------|
||o-2--2-2-2-2-2-2-2-2-2------|--------------------------|
||--0--0-0-0-0-0-0-0-0-0------|----0-0-0-----------------|


  E5                   N.C.
 3/4                         4/4
     PM--------------|           PM--|
  Q  T T T T T T T T E  S S   Q  S S S  S  S  S  S  S  S  S  S  S
|----------------------10p7-|----------15p12-------12-12-12--------||
|---------------------------|-8--------------12h15----------15\-0-o||
|---------------------------|--------------------------------------||
|-2--2-2-2-2-2-2-2-2-2------|--------------------------------------||
|-2--2-2-2-2-2-2-2-2-2------|-------------------------------------o||
|-0--0-0-0-0-0-0-0-0-0------|----0-0-0-----------------------------||


   Interlude
    Em          Ebm           Bm          C
   6/8
    Gtrs I, II
    S S S S +E  S S S S +E    S S S S +E  S S S S +E
||--------------------------|-------------------------|
||o-8-8---8-(8)-7-7---7-(7)-|-3-3---3-(3)-5-5---5-(5)-|
||--x-x---x-(x)-x-x---x-(x)-|-x-x---x-(x)-x-x---x-(x)-|
||--x-x---x-(x)-x-x---x-(x)-|-x-x---x-(x)-x-x---x-(x)-|
||o-7-7---7-(7)-6-6---6-(6)-|-2-2---2-(2)-3-3---3-(3)-|
||--------------------------|-------------------------|


  Em          Ebm           Am              G
  S S S S +E  S S S S +E     S  S S  S  +E   S  S S  S  +E
|-------------------------|----------------------------------||
|-8-8---8-(8)-7-7---7-(7)-|-13-13---13-(13)-12-12---12-(12)-o||
|-x-x---x-(x)-x-x---x-(x)-|--x--x----x--(x)--x--x----x--(x)--||
|-x-x---x-(x)-x-x---x-(x)-|--x--x----x--(x)--x--x----x--(x)--||
|-7-7---7-(7)-6-6---6-(6)-|-12-12---12-(12)-10-10---10-(10)-o||
|-------------------------|----------------------------------||


 Bridge
  Q=95                Q=106
  A5    E5    E5      N.C.    C5
 9/8                 2/4
                      PM----|
   Q.    Q.    Q.     S S S S  S  S  S  S
|-------------------|---------------------||
|-------------------|---------------------||
|-------------^9----|---------------------||
|-^7----^2----^9----|---------10-10-10-10-||
|-^7----^2----^7----|---------10-10-10-10-||
|-^5----^0----------|-8-8-8-8--8--8--8--8-||


   Main Theme
    N.C.            CsusA5     N.C.            G5 C5
   4/4
    Gtrs I, II
    S S S S S S S S  E. E. E   S S S S S S S S E.  T T T T T T  E
||---------------------------|------------------------------------|
||o---8p7--------------------|------------------------------------|
||--------9p7p0--------------|---5p4------------------------------|
||--------------7h9-12\-7--7-|-7-----7p5p0-2s5-5--10-x-x-x-x-x-10-|
||o-7---------------10\-7--7-|-----------------5--10-x-x-x-x-x-10-|
||-------------------8\-5--5-|-----------------3---8-x-x-x-x-x--8-|


  N.C.            Csus2A5     C         N.C.          A5        G5
                             6/8
  S S S S S S S S  E.  E. E   S S S E S S S S S S S   S S S E S S S S S S S
|---------------------------|-----------------------|-------------------------||
|---8p7---------------------|-----------------0h3p0-|------------------------o||
|-------9p7p0---------------|-5-5---5-5-4h5p0-------|-2-2---2-2---------------||
|-------------7h9-12\--7--7-|-x-x---x-x-------------|-2-2---2-2-5-5---5-5-5---||
|-7---------------10\--7--7-|-3-3---3-3-------------|-0-0---0-0-5-5---5-5-5--o||
|------------------8\--5--5-|-----------------------|-----------3-3---3-3-3---||


  C         N.C.          A5          G5
  S S S E S S S S S S S   S S S S S S S S S S S S
|-----------------------|-------------------------|
|-----------------0h3p0-|-------------------------|
|-5-5---5-5-4h5p0-------|-2-2---2-2-2-------------|
|-x-x---x-x-------------|-2-2---2-2-2-5-5---5-5-5-|
|-3-3---3-3-------------|-0-0---0-0-0-5-5---5-5-5-|
|-----------------------|-------------3-3---3-3-3-|


    C             N.C.              A5              G5
    Gtr I
     S  S S  E  S  S  S S  S S  S    S  S S  S  S S  S  S S  S  S  S
||--------------------------------|-----------------------------------||
||o------------------------0h3p=0-|----------------------------------o||
||---5--5----5--5--4h=5p0---------|--2--2----2--2-2-------------------||
||---x--x----x--x-----------------|--2--2----2--2-2--5--5----5--5--5--||
||o--3--3----3--3-----------------|--0--0----0--0-0--5--5----5--5--5-o||
||--------------------------------|------------------3--3----3--3--3--||
|
|   Gtr II
|    S  S S  E  S  S  S S  E    S    S  S S  S  S S  S  S S  S  S  S
||--------------------------------|-----------------------------------||
||o-------------------------------|----------------------------------o||
||--17-17---17-17-16-16---16---16-|-14-14---14-14---12-12---12-12-12--||
||---x--x----x--x--x--x----x----x-|--x--x----x--x----x--x----x--x--x--||
||o-15-15---15-15-14-14---14---14-|-12-12---12-12---10-10---10-10-10-o||
||--------------------------------|-----------------------------------||


   Breakdown
    Q=155
    N.C.
   3/4
    Gtrs I, II
    |-3-| |-3-| |-3-|   |-3-| |-3-| |-3-|
    E E E E E E E E E   E E E E E E E E E
||--------------------|-------------------|
||o-------------------|-------------------|
||--------------------|-------------------|
||--------------------|-------------------|
||o-------------------|-------------------|
||--5h8p5-5h8p5-5h8p5-|-4h7p4-4h7p4-4h7p4-|


  |-3-| |-3-| |-3-|   |-3-| |-3-| |-3--|
  E E E E E E E E E   E E E E E E E  E E
|-------------------|--------------------|
|-------------------|--------------------|
|-------------------|--------------------|
|-------------------|-------7p0-9p0-10p0-|
|-0h5p0-0h5p0-0h5p0-|-0h5h8--------------|
|-------------------|--------------------|


  |-3-| |-3-| |-3-|   |-3-| |-3-| |-3-|
  E E E E E E E E E   E E E E E E E E E
|-------------------|-------------------|
|-------------------|-------------------|
|-------------------|-------------------|
|-------------------|-------------------|
|-------------------|-------------------|
|-5h8p5-5h8p5-5h8p5-|-4h7p4-4h7p4-4h7p4-|


  PM------------|
  |-3-| |-3-| |-3-|   |-3-| |-3-| |-3-|
  E E E E E E E E E   E E E E E E E E E
|-------------------|-----------2h4h5p0--||
|-------------------|-----2h3h5---------o||
|-----------------1h|=2h4----------------||
|-----------0h2h4---|--------------------||
|-----0h2h4---------|-------------------o||
|-2h4---------------|--------------------||


  A5
  >
  H.        +H.        +H.        +H.
|---------|----------|----------|--------*|
|---------|----------|----------|--------*|
|---------|----------|----------|--------*|
|-7-------|-(7)------|-(7)------|-(7)----*|
|-7-------|-(7)------|-(7)------|-(7)----*|
|-5-------|-(5)------|-(5)------|-(5)----*|



Duration Legend
---------------
W - whole; H - half; Q - quarter; E - 8th; S - 16th; T - 32nd; X - 64th; a - acciaccatura
+ - note tied to previous; . - note dotted; .. - note double dotted
Uncapitalized letters represent notes that are staccato (1/2 duration)
Irregular groupings are notated above the duration line
Duration letters will always appear directly above the note/fret number it represents the
duration for.  Duration letters with no fret number below them represent rests.  Multi-
bar rests are notated in the form Wxn, where n is the number of bars to rest for.  Low
melody durations appear below the staff

Tablature Legend
----------------
 h   - hammer-on
 p   - pull-off
 b   - bend
 pb  - pre-bend
 r   - bend release (if no number after the r, then release immediately)
 /\  - slide into or out of (from/to "nowhere")
 s   - legato slide
 S   - shift slide
 - natural harmonic
[n]  - artificial harmonic
n(n) - tapped harmonic
 ~   - vibrato
 tr  - trill
 T   - tap
 TP  - trem. picking
 PM  - palm muting
\n/  - tremolo bar dip; n = amount to dip
 \n  - tremolo bar down
 n/  - tremolo bar up
/n\  - tremolo bar inverted dip
 =   - hold bend; also acts as connecting device for hammers/pulls
 <> - volume swell (louder/softer)
 x   - on rhythm slash represents muted slash
 o   - on rhythm slash represents single note slash

Misc Legend
-----------
 |  - bar
||  - double bar
||o - repeat start
o|| - repeat end
*|  - double bar (ending)
 :  - bar (freetime)
 $  - Segno
 &  - Coda
Tempo markers -  = BPM(8/16=s8/s16), where s8 = swing 8ths, s16 = swing 16ths

Tap to rate this tab
 
# A B C D E F G H I J K L M N O P Q R S T U V W X Y Z