Song name
# A B C D E F G H I J K L M N O P Q R S T U V W X Y Z

The Fall Of Troy - What Sound Does A Mastadon Make tab

#----------------------------------PLEASE NOTE---------------------------------#
#This file is the author's own work and represents their interpretation of the #
#song. You may only use this file for private study, scholarship, or research. #
#------------------------------------------------------------------------------#

WHAT SOUND DOES A MASTADON MAKE?
As recorded by Fall of Troy, The
(From the 2003 Album THE FALL OF TROY)

Transcribed by Jay Austria (bananax182)
	

Words and Music by The Fall of Troy
Arranged by The Fall of Troy

Gtr I (E A D G B E) - 'Untitled'
Gtr II (E A D G B E) - 'Untitled'
Gtr III (E A D G B E) - 'Untitled'
Gtr IV (E A D G B E) - 'Untitled'
Gtr V (E A D G B E) - 'Untitled'
Gtr VI (E A D G B E) - 'Untitled'

 Intro
  Q=136
  Em
 4/4
  Gtr I
      PM|      PM|      PM|      PM|      PM---|
   S  s  s  S  s  s  S  s  s  S  s  s  S  s  s  s
|-------------------------------------------------|
|-12-12-12-12-12-12-12-12-12-12-12-12-12-12-12-12-|
|-12-12-12-12-12-12-12-12-12-12-12-12-12-12-12-12-|
|-14-14-14-14-14-14-14-14-14-14-14-14-14-14-14-14-|
|-------------------------------------------------|
|-------------------------------------------------|


      PM|      PM|      PM|      PM|      PM---|
   S  s  s  S  s  s  S  s  s  S  s  s  S  s  s  s
|--------------------------------------------------|
|-12-12-12-12-12-12-12-12-12-12-12-12-12-12-12-12--|
|-12-12-12-12-12-12-12-12-12-12-12-12-12-12-12-12--|
|-14-14-14-14-14-14-14-14-14-14-14-14-14-14-14-14--|
|--------------------------------------------------|
|--------------------------------------------------|


  D/F#              D7/F#
      PM|      PM|      PM|      PM|      PM---|
   S  s  s  S  s  s  S  s  s  S  s  s  S  s  s  s
|-------------------------------------------------|
|-15-15-15-15-15-15-13-13-13-13-13-13-13-13-13-13-|
|-11-11-11-11-11-11-11-11-11-11-11-11-11-11-11-11-|
|-------------------------------------------------|
|-------------------------------------------------|
|-------------------------------------------------|


  G                 Gmaj7
      PM|      PM|      PM|      PM|      PM---|
   S  s  s  S  s  s  S  s  s  S  s  s  S  s  s  s
|-15-15-15-15-15-15-14-14-14-14-14-14-14-14-14-14-|
|-12-12-12-12-12-12-12-12-12-12-12-12-12-12-12-12-|
|-12-12-12-12-12-12-12-12-12-12-12-12-12-12-12-12-|
|-------------------------------------------------|
|-------------------------------------------------|
|-------------------------------------------------|


  Em
      PM|      PM-|      PM|      PM-|      PM---|
   S  s  s  S  s   s  S  s  s  S  s   s  S  s  s  s
|---------------------------------------------------|
|-12-12-12-12-12--12-12-12-12-12-12--12-12-12-12-12-|
|-12-12-12-12-12--12-12-12-12-12-12--12-12-12-12-12-|
|-14-14-14-14-14--14-14-14-14-14-14--14-14-14-14-14-|
|---------------------------------------------------|
|---------------------------------------------------|
|
| Gtr II
|  E     S  S +E      E     S  S +E      S  S  S  S
|---------------------------------------------------|
|---------------------------------------------------|
|--9-----9--9-(9)-----9-----9--9-(9)-----9--9--9--9-|
|--x-----x--x-(x)-----x-----x--x-(x)-----x--x--x--x-|
|--7-----7--7-(7)-----7-----7--7-(7)-----7--7--7--7-|
|---------------------------------------------------|


      PM|      PM-|      PM|      PM-|      PM---|
   S  s  s  S  s   s  S  s  s  S  s   s  S  s  s  s
|---------------------------------------------------|
|-12-12-12-12-12--12-12-12-12-12-12--12-12-12-12-12-|
|-12-12-12-12-12--12-12-12-12-12-12--12-12-12-12-12-|
|-14-14-14-14-14--14-14-14-14-14-14--14-14-14-14-14-|
|---------------------------------------------------|
|---------------------------------------------------|
|
|  E     S  S +E      E     S  S +E      S  S  S  S
|---------------------------------------------------|
|---------------------------------------------------|
|--9-----9--9-(9)-----9-----9--9-(9)-----9--9--9--9-|
|--x-----x--x-(x)-----x-----x--x-(x)-----x--x--x--x-|
|--7-----7--7-(7)-----7-----7--7-(7)-----7--7--7--7-|
|---------------------------------------------------|


  D/F#              D7/F#
      PM|      PM|      PM|      PM|      PM---|
   S  s  s  S  s  s  S  s  s  S  s  s  S  s  s  s
|-------------------------------------------------|
|-15-15-15-15-15-15-13-13-13-13-13-13-13-13-13-13-|
|-11-11-11-11-11-11-11-11-11-11-11-11-11-11-11-11-|
|-------------------------------------------------|
|-------------------------------------------------|
|-------------------------------------------------|
|
|  S  S  S  S  S  S  S  S  S  S  S  S  S  S  S  S
|-------------------------------------------------|
|-------------------------------------------------|
|-11-11-11-11-11-11-11-11-11-11-11-11-11-11-11-11-|
|--x--x--x--x--x--x--x--x--x--x--x--x--x--x--x--x-|
|--9--9--9--9--9--9--9--9--9--9--9--9--9--9--9--9-|
|-------------------------------------------------|


  G                 Gmaj7
      PM|      PM|      PM|      PM|      PM---|
   S  s  s  S  s  s  S  s  s  S  s  s  S  s  s  s
|-15-15-15-15-15-15-14-14-14-14-14-14-14-14-14-14-|
|-12-12-12-12-12-12-12-12-12-12-12-12-12-12-12-12-|
|-12-12-12-12-12-12-12-12-12-12-12-12-12-12-12-12-|
|-------------------------------------------------|
|-------------------------------------------------|
|-------------------------------------------------|
|
|  S  S  S  S  S  S  S  S  S  S  S  S  S  S  S  S
|-------------------------------------------------|
|-------------------------------------------------|
|-12-12-12-12-12-12-14-14-14-14-14-14-14-14-14-14-|
|--x--x--x--x--x--x--x--x--x--x--x--x--x--x--x--x-|
|-10-10-10-10-10-10-12-12-12-12-12-12-12-12-12-12-|
|-------------------------------------------------|


  Em
      PM|      PM-|      PM|      PM-|      PM---|
   S  s  s  S  s   s  S  s  s  S  s   s  S  s  s  s
|---------------------------------------------------|
|-12-12-12-12-12--12-12-12-12-12-12--12-12-12-12-12-|
|-12-12-12-12-12--12-12-12-12-12-12--12-12-12-12-12-|
|-14-14-14-14-14--14-14-14-14-14-14--14-14-14-14-14-|
|---------------------------------------------------|
|---------------------------------------------------|
|
|  E     S  S +E      E     S  S +E      S  S  S  S
|---------------------------------------------------|
|---------------------------------------------------|
|--9-----9--9-(9)-----9-----9--9-(9)-----9--9--9--9-|
|--x-----x--x-(x)-----x-----x--x-(x)-----x--x--x--x-|
|--7-----7--7-(7)-----7-----7--7-(7)-----7--7--7--7-|
|---------------------------------------------------|


      PM|      PM-|      PM|      PM-|      PM---|
   S  s  s  S  s   s  S  s  s  S  s   s  S  s  s  s
|---------------------------------------------------|
|-12-12-12-12-12--12-12-12-12-12-12--12-12-12-12-12-|
|-12-12-12-12-12--12-12-12-12-12-12--12-12-12-12-12-|
|-14-14-14-14-14--14-14-14-14-14-14--14-14-14-14-14-|
|---------------------------------------------------|
|---------------------------------------------------|
|
|  E     S  S +E      E     S  S +E      S  S  S  S
|---------------------------------------------------|
|---------------------------------------------------|
|--9-----9--9-(9)-----9-----9--9-(9)-----9--9--9--9-|
|--x-----x--x-(x)-----x-----x--x-(x)-----x--x--x--x-|
|--7-----7--7-(7)-----7-----7--7-(7)-----7--7--7--7-|
|---------------------------------------------------|


  D/F#              D7/F#
      PM|      PM|      PM|      PM|      PM---|
   S  s  s  S  s  s  S  s  s  S  s  s  S  s  s  s
|-------------------------------------------------|
|-15-15-15-15-15-15-13-13-13-13-13-13-13-13-13-13-|
|-11-11-11-11-11-11-11-11-11-11-11-11-11-11-11-11-|
|-------------------------------------------------|
|-------------------------------------------------|
|-------------------------------------------------|
|
|  S  S  S  S  S  S  S  S  S  S  S  S  S  S  S  S
|-------------------------------------------------|
|-------------------------------------------------|
|--7--7--7--7--7--7--7--7--7--7--7--7--7--7--7--7-|
|--x--x--x--x--x--x--x--x--x--x--x--x--x--x--x--x-|
|--5--5--5--5--5--5--5--5--5--5--5--5--5--5--5--5-|
|-------------------------------------------------|


  G                 Gmaj7
      PM|      PM|      PM|      PM|      PM---|
   S  s  s  S  s  s  S  s  s  S  s  s  S  s  s  s
|-15-15-15-15-15-15-14-14-14-14-14-14-14-14-14-14-|
|-12-12-12-12-12-12-12-12-12-12-12-12-12-12-12-12-|
|-12-12-12-12-12-12-12-12-12-12-12-12-12-12-12-12-|
|-------------------------------------------------|
|-------------------------------------------------|
|-------------------------------------------------|
|
|  S  S  S  S  S  S  S  S  S  S  S  S  S  S  S  S
|-------------------------------------------------|
|-------------------------------------------------|
|--5--5--5--5--5--5--5--5--5--5--5--5--4--4--4--4-|
|--x--x--x--x--x--x--x--x--x--x--x--x--x--x--x--x-|
|--3--3--3--3--3--3--3--3--3--3--3--3--2--2--2--2-|
|-------------------------------------------------|


  Em
      PM|      PM-|      PM|      PM-|      PM---|
   S  s  s  S  s   s  S  s  s  S  s   s  S  s  s  s
|---------------------------------------------------|
|-12-12-12-12-12--12-12-12-12-12-12--12-12-12-12-12-|
|-12-12-12-12-12--12-12-12-12-12-12--12-12-12-12-12-|
|-14-14-14-14-14--14-14-14-14-14-14--14-14-14-14-14-|
|---------------------------------------------------|
|---------------------------------------------------|
|
|  E     S  S +E      E     S  S +E      S  S  S  S
|---------------------------------------------------|
|---------------------------------------------------|
|--9-----9--9-(9)-----9-----9--9-(9)-----9--9--9--9-|
|--x-----x--x-(x)-----x-----x--x-(x)-----x--x--x--x-|
|--7-----7--7-(7)-----7-----7--7-(7)-----7--7--7--7-|
|---------------------------------------------------|


      PM|      PM-|      PM|      PM-|      PM---|
   S  s  s  S  s   s  S  s  s  S  s   s  S  s  s  s
|---------------------------------------------------|
|-12-12-12-12-12--12-12-12-12-12-12--12-12-12-12-12-|
|-12-12-12-12-12--12-12-12-12-12-12--12-12-12-12-12-|
|-14-14-14-14-14--14-14-14-14-14-14--14-14-14-14-14-|
|---------------------------------------------------|
|---------------------------------------------------|
|
|  E     S  S +E      E     S  S +E      S  S  S  S
|---------------------------------------------------|
|---------------------------------------------------|
|--9-----9--9-(9)-----9-----9--9-(9)-----9--9--9--9-|
|--x-----x--x-(x)-----x-----x--x-(x)-----x--x--x--x-|
|--7-----7--7-(7)-----7-----7--7-(7)-----7--7--7--7-|
|---------------------------------------------------|


  D/F#              D7/F#
      PM|      PM|      PM|      PM|      PM---|
   S  s  s  S  s  s  S  s  s  S  s  s  S  s  s  s
|-------------------------------------------------|
|-15-15-15-15-15-15-13-13-13-13-13-13-13-13-13-13-|
|-11-11-11-11-11-11-11-11-11-11-11-11-11-11-11-11-|
|-------------------------------------------------|
|-------------------------------------------------|
|-------------------------------------------------|
|
|  S  S  S  S  S  S  S  S  S  S  S  S  S  S  S  S
|-------------------------------------------------|
|-------------------------------------------------|
|-11-11-11-11-11-11-11-11-11-11-11-11-11-11-11-11-|
|--x--x--x--x--x--x--x--x--x--x--x--x--x--x--x--x-|
|--9--9--9--9--9--9--9--9--9--9--9--9--9--9--9--9-|
|-------------------------------------------------|


  G                 Gmaj7
      PM|      PM|      PM|      PM|      PM---|
   S  s  s  S  s  s  S  s  s  S  s  s  S  s  s  s
|-15-15-15-15-15-15-14-14-14-14-14-14-14-14-14-14-|
|-12-12-12-12-12-12-12-12-12-12-12-12-12-12-12-12-|
|-12-12-12-12-12-12-12-12-12-12-12-12-12-12-12-12-|
|-------------------------------------------------|
|-------------------------------------------------|
|-------------------------------------------------|
|
|  S  S  S  S  S  S  S  S  S  S  S  S  S  S  S  S
|-------------------------------------------------|
|-------------------------------------------------|
|-12-12-12-12-12-12-14-14-14-14-14-14-16-16-16-16-|
|--x--x--x--x--x--x--x--x--x--x--x--x--x--x--x--x-|
|-10-10-10-10-10-10-12-12-12-12-12-12-14-14-14-14-|
|-------------------------------------------------|


 Pre-Verse
  $
 7/8                                4/4
   S  S  S  S  E  S  S  S  S  E  E    S  S  S  S  E  S  S  S  S  E  E  E
|----------------------------------|-------------------------------------|
|----------------------------------|-------------------------------15----|
|-11h12p11----11-11h12p11----11----|-11h12p11----11-11h12p11----11----11-|
|----------14-------------14----14-|----------14-------------14----------|
|----------------------------------|-------------------------------------|
|----------------------------------|-------------------------------------|
|
|  W                                  W
|----------------------------------|-------------------------------------|
|----------------------------------|-------------------------------------|
|----------------------------------|-------------------------------------|
|----------------------------------|-------------------------------------|
|----------------------------------|-------------------------------------|
|----------------------------------|-------------------------------------|


 6/8
   S S  S S  S S  S S  S S  S S    S S  S S  S S  S S  S S  S S
|-14p0-----------14p0-----------|-15p0-----------15p0-----------|
|------15p0-15p0------15p0-15p0-|------16p0-16p0------16p0-16p0-|
|-------------------------------|-------------------------------|
|-------------------------------|-------------------------------|
|-------------------------------|-------------------------------|
|-------------------------------|-------------------------------|
|
|  S S  S S  S S  S S  S S  S S    S S  S S  S S  S S  S S  S S
|--2p0------------2p0-----------|--3p0------------3p0-----------|
|-------3p0--3p0-------3p0--3p0-|-------4p0--4p0-------4p0--4p0-|
|-------------------------------|-------------------------------|
|-------------------------------|-------------------------------|
|-------------------------------|-------------------------------|
|-------------------------------|-------------------------------|


   Verse
   7/8
     S  S  S  S  S S  S  S  S  S  S S  S S
||--15p=0------------15p=0------------15p0-|
||o-------15h17p15p0-------15h17p15p0------|
||-----------------------------------------|
||-----------------------------------------|
||o----------------------------------------|
||-----------------------------------------|
|
|    S  S  S  S  E    S  S  S  S  E    E
||-----------------------------------------|
||o----------------------------------------|
||--11h12p11----11---11h12p11----11--------|
||-----------14---------------14------14---|
||o----------------------------------------|
||-----------------------------------------|


 4/4
   S  S  S  S  S S  S  S  S  S  S S  S S  S S
|-15p=0------------15p=0------------17p0-15p0--|
|-------15h17p15p0-------15h17p15p0------------|
|----------------------------------------------|
|----------------------------------------------|
|----------------------------------------------|
|----------------------------------------------|
|
|  S  S  S  S  E    S  S  S  S  E    E    E
|----------------------------------------------|
|-----------------------------------15---------|
|-11h12p11----11---11h12p11----11--------11----|
|----------14---------------14-----------------|
|----------------------------------------------|
|----------------------------------------------|


                                  1.,2.,3.
 6/8
   S S  S S  S S  S S  S S  S S    S S  S S  S S  S S  S S  S S  4x
|-14p0-----------14p0-----------|-15p0-----------15p0------------||
|------15p0-15p0------15p0-15p0-|------16p0-16p0------16p0-16p0-o||
|-------------------------------|--------------------------------||
|-------------------------------|--------------------------------||
|-------------------------------|-------------------------------o||
|-------------------------------|--------------------------------||
|
|  S S  S S  S S  S S  S S  S S    S S  S S  S S  S S  S S  S S  4x
|--2p0------------2p0-----------|--3p0------------3p0------------||
|-------3p0--3p0-------3p0--3p0-|-------4p0--4p0-------4p0--4p0-o||
|-------------------------------|--------------------------------||
|-------------------------------|--------------------------------||
|-------------------------------|-------------------------------o||
|-------------------------------|--------------------------------||


  4.
   S S  S S  S S  Q.
|-15p0-----------------|
|------16p0-16p0-------|
|----------------12\---|
|----------------------|
|----------------------|
|----------------------|
|
|  S S  S S  S S  Q.
|--3p0-----------------|
|-------4p0--4p0-------|
|----------------12\---|
|----------------------|
|----------------------|
|----------------------|


   Guitar Break
   4/4
    Gtrs III, IV
    E E S  S S S S S  S  S S  S  S S    E.  S  +E   E  +S   E.  E  E
||-----------------------------------|-------------------------------|
||o-----8h10p0-------13p12p0---------|-12--10-(10)-15-(15)-13--12-12-|
||--9-9--------7h9p0---------12h14p0-|-12--11-(11)-16-(16)-14--12-12-|
||-----------------------------------|-------------------------------|
||o----------------------------------|-------------------------------|
||-----------------------------------|-------------------------------|


                                                         D.S.
  E E S  S S S S S  S  S S  S  S S    E  E S  E.  E  E S  E.
|----------------------------------|---------------------------||
|-----8h10p0-------13p12p0---------|--------------------------o||
|-9-9--------7h9p0---------12h14p0-|-12-12-x-11\-12-12---11\---||
|----------------------------------|-14-14-x-12\-14-14---12\---||
|----------------------------------|--------------------------o||
|----------------------------------|---------------------------||


 Breakdown
  Gtr I
   E S  S  +s  S  S  +S  S  E S  E  E   E S S +S  S E S S S S  S  S  S  S
|-------------------------------------|-----------------------------------|
|-------------------------------------|-----------------------------------|
|-12---12-(12)---12-(12)---12---12-12-|-9-x-9-(9)-x-9-x-9-x-9-12-12-12-12-|
|--x----x--(x)----x--(x)----x----x--x-|-x-x-x-(x)-x-x-x-x-x-x--x--x--x--x-|
|-10---10-(10)---10-(10)---10---10-10-|-7-x-7-(7)-x-7-x-7-x-7-10-10-10-10-|
|-------------------------------------|-----------------------------------|
|
| Gtr IV
|  E S  S  +s  S  S  +S  S  E S  E  E   W
|-------------------------------------|-----------------------------------|
|-------------------------------------|-----------------------------------|
|-------------------------------------|-----------------------------------|
|--2----2--(2)----2--(2)----2----2--2-|-----------------------------------|
|--2----2--(2)----2--(2)----2----2--2-|-----------------------------------|
|--0----0--(0)----0--(0)----0----0--0-|-----------------------------------|


   E S  S  +s  S  S  +S  S  E S  E  E   E S S +S  S E S S S S S S S S
|-------------------------------------|-------------------------------|
|-------------------------------------|-------------------------------|
|-12---12-(12)---12-(12)---12---12-12-|-9-x-9-(9)-x-9-x-9-x-9-7-7-7-7-|
|--x----x--(x)----x--(x)----x----x--x-|-x-x-x-(x)-x-x-x-x-x-x-x-x-x-x-|
|-10---10-(10)---10-(10)---10---10-10-|-7-x-7-(7)-x-7-x-7-x-7-5-5-5-5-|
|-------------------------------------|-------------------------------|
|
|  E S  S  +s  S  S  +S  S  E S  E  E   W
|-------------------------------------|-------------------------------|
|-------------------------------------|-------------------------------|
|-------------------------------------|-------------------------------|
|--2----2--(2)----2--(2)----2----2--2-|-------------------------------|
|--2----2--(2)----2--(2)----2----2--2-|-------------------------------|
|--0----0--(0)----0--(0)----0----0--0-|-------------------------------|


    E S S +S  S E S S S S  S  S  S  S   E S S +S  S E S S S S S S S S
||------------------------------------|--------------------------------||
||o-----------------------------------|-------------------------------o||
||--9-x-9-(9)-x-9-x-9-x-9-12-12-12-12-|-9-x-9-(9)-x-9-x-9-x-9-7-7-7-7--||
||--x-x-x-(x)-x-x-x-x-x-x--x--x--x--x-|-x-x-x-(x)-x-x-x-x-x-x-x-x-x-x--||
||o-7-x-7-(7)-x-7-x-7-x-7-10-10-10-10-|-7-x-7-(7)-x-7-x-7-x-7-5-5-5-5-o||
||------------------------------------|--------------------------------||
|
|   Gtr II
|   E S S +S  S E S S S S  S  S  S  S   E S S +S  S E S S S S S S S S
||------------------------------------|--------------------------------||
||o-----------------------------------|-------------------------------o||
||--9-x-9-(9)-x-9-x-9-x-9-12-12-12-12-|-9-x-9-(9)-x-9-x-9-x-9-7-7-7-7--||
||--x-x-x-(x)-x-x-x-x-x-x--x--x--x--x-|-x-x-x-(x)-x-x-x-x-x-x-x-x-x-x--||
||o-7-x-7-(7)-x-7-x-7-x-7-10-10-10-10-|-7-x-7-(7)-x-7-x-7-x-7-5-5-5-5-o||
||------------------------------------|--------------------------------||


  E   S S +S  S E   S S S S  S  S  S  S   E   S S +S  S E   S S S S S S S S
|---------------------------------------|-----------------------------------|
|---------------------------------------|-----------------------------------|
|-9---x-9-(9)-x-9---x-9-x-9-12-12-12-12-|-9---x-9-(9)-x-9---x-9-x-9-7-7-7-7-|
|-x---x-x-(x)-x-x---x-x-x-x--x--x--x--x-|-x---x-x-(x)-x-x---x-x-x-x-x-x-x-x-|
|-7---x-7-(7)-x-7---x-7-x-7-10-10-10-10-|-7---x-7-(7)-x-7---x-7-x-7-5-5-5-5-|
|---------------------------------------|-----------------------------------|
|
| S S S S  S  S S S S S S S  S  S  S  S   S S S S  S  S S S S S S S S S S S
|---------------------------------------|-----------------------------------|
|---------------------------------------|-----------------------------------|
|-7-7-7-7--7--7-7-7-7-7-7-7--7--7--7--7-|-7-7-7-7--7--7-7-7-7-7-7-7-7-7-7-7-|
|-x-x-x-x--x--x-x-x-x-x-x-x--x--x--x--x-|-x-x-x-x--x--x-x-x-x-x-x-x-x-x-x-x-|
|-5-5-5-5--5--5-5-5-5-5-5-5--5--5--5--5-|-5-5-5-5--5--5-5-5-5-5-5-5-5-5-5-5-|
|---------------------------------------|-----------------------------------|


  E   S S +S  S E   S S S S  S  S  S  S
|---------------------------------------|
|---------------------------------------|
|-9---x-9-(9)-x-9---x-9-x-9-12-12-12-12-|
|-x---x-x-(x)-x-x---x-x-x-x--x--x--x--x-|
|-7---x-7-(7)-x-7---x-7-x-7-10-10-10-10-|
|---------------------------------------|
|
| S S S S  S  S S S S S S S  S  S  S  S
|---------------------------------------|
|---------------------------------------|
|-5-5-5-5--5--5-5-5-5-5-5-5--5--5--5--5-|
|-x-x-x-x--x--x-x-x-x-x-x-x--x--x--x--x-|
|-3-3-3-3--3--3-3-3-3-3-3-3--3--3--3--3-|
|---------------------------------------|


   S  S  S  S  S  S  S  S  S  S  S  S  S  S  S  S
|-------------------------------------------------|
|-------------------------------------------------|
|-11h12p11h12p11h12p11h12p11h12p11h12p11h12p11h12-|
|-------------------------------------------------|
|-------------------------------------------------|
|-------------------------------------------------|
|
|  S  S  S  S  S  S  S  S  S  S  S  S  S  S  S  S
|-------------------------------------------------|
|-------------------------------------------------|
|--5--5--5--5--5--5--5--5--5--5--5--5--5--5--5--5-|
|--x--x--x--x--x--x--x--x--x--x--x--x--x--x--x--x-|
|--3--3--3--3--3--3--3--3--3--3--3--3--3--3--3--3-|
|-------------------------------------------------|


  Gtr III
  E S S +S  S E S S S S  S  S  S  S   E S S +S  S E S S S S S S S S
|-----------------------------------|-------------------------------|
|-----------------------------------|-------------------------------|
|-9-x-9-(9)-x-9-x-9-x-9-12-12-12-12-|-9-x-9-(9)-x-9-x-9-x-9-7-7-7-7-|
|-x-x-x-(x)-x-x-x-x-x-x--x--x--x--x-|-x-x-x-(x)-x-x-x-x-x-x-x-x-x-x-|
|-7-x-7-(7)-x-7-x-7-x-7-10-10-10-10-|-7-x-7-(7)-x-7-x-7-x-7-5-5-5-5-|
|-----------------------------------|-------------------------------|
|
| Gtr IV
| E S S +S  S E S S S S  S  S  S  S   E S S +S  S E S S S S S S S S
|-----------------------------------|-------------------------------|
|-----------------------------------|-------------------------------|
|-9-x-9-(9)-x-9-x-9-x-9-12-12-12-12-|-9-x-9-(9)-x-9-x-9-x-9-7-7-7-7-|
|-x-x-x-(x)-x-x-x-x-x-x--x--x--x--x-|-x-x-x-(x)-x-x-x-x-x-x-x-x-x-x-|
|-7-x-7-(7)-x-7-x-7-x-7-10-10-10-10-|-7-x-7-(7)-x-7-x-7-x-7-5-5-5-5-|
|-----------------------------------|-------------------------------|


  E S S +S  S E S S S S  S  S  S  S   E S S +S  S E S S S S S S S S
|-----------------------------------|-------------------------------|
|-----------------------------------|-------------------------------|
|-9-x-9-(9)-x-9-x-9-x-9-12-12-12-12-|-9-x-9-(9)-x-9-x-9-x-9-7-7-7-7-|
|-x-x-x-(x)-x-x-x-x-x-x--x--x--x--x-|-x-x-x-(x)-x-x-x-x-x-x-x-x-x-x-|
|-7-x-7-(7)-x-7-x-7-x-7-10-10-10-10-|-7-x-7-(7)-x-7-x-7-x-7-5-5-5-5-|
|-----------------------------------|-------------------------------|
|
| E S S +S  S E S S S S  S  S  S  S   E S S +S  S E S S S S S S S S
|-----------------------------------|-------------------------------|
|-----------------------------------|-------------------------------|
|-9-x-9-(9)-x-9-x-9-x-9-12-12-12-12-|-9-x-9-(9)-x-9-x-9-x-9-7-7-7-7-|
|-x-x-x-(x)-x-x-x-x-x-x--x--x--x--x-|-x-x-x-(x)-x-x-x-x-x-x-x-x-x-x-|
|-7-x-7-(7)-x-7-x-7-x-7-10-10-10-10-|-7-x-7-(7)-x-7-x-7-x-7-5-5-5-5-|
|-----------------------------------|-------------------------------|


  E   S S +S  S E   S S S S  S  S  S  S   E   S S +S  S E   S S S S S S S S
|---------------------------------------|-----------------------------------|
|---------------------------------------|-----------------------------------|
|-9---x-9-(9)-x-9---x-9-x-9-12-12-12-12-|-9---x-9-(9)-x-9---x-9-x-9-7-7-7-7-|
|-x---x-x-(x)-x-x---x-x-x-x--x--x--x--x-|-x---x-x-(x)-x-x---x-x-x-x-x-x-x-x-|
|-7---x-7-(7)-x-7---x-7-x-7-10-10-10-10-|-7---x-7-(7)-x-7---x-7-x-7-5-5-5-5-|
|---------------------------------------|-----------------------------------|
|
| S S S S  S  S S S S S S S  S  S  S  S   S S S S  S  S S S S S S S S S S S
|---------------------------------------|-----------------------------------|
|---------------------------------------|-----------------------------------|
|-7-7-7-7--7--7-7-7-7-7-7-7--7--7--7--7-|-7-7-7-7--7--7-7-7-7-7-7-7-7-7-7-7-|
|-x-x-x-x--x--x-x-x-x-x-x-x--x--x--x--x-|-x-x-x-x--x--x-x-x-x-x-x-x-x-x-x-x-|
|-5-5-5-5--5--5-5-5-5-5-5-5--5--5--5--5-|-5-5-5-5--5--5-5-5-5-5-5-5-5-5-5-5-|
|---------------------------------------|-----------------------------------|


  E   S S +S  S E   S S S S  S  S  S  S
|---------------------------------------|
|---------------------------------------|
|-9---x-9-(9)-x-9---x-9-x-9-12-12-12-12-|
|-x---x-x-(x)-x-x---x-x-x-x--x--x--x--x-|
|-7---x-7-(7)-x-7---x-7-x-7-10-10-10-10-|
|---------------------------------------|
|
| S S S S  S  S S S S S S S  S  S  S  S
|---------------------------------------|
|---------------------------------------|
|-5-5-5-5--5--5-5-5-5-5-5-5--5--5--5--5-|
|-x-x-x-x--x--x-x-x-x-x-x-x--x--x--x--x-|
|-3-3-3-3--3--3-3-3-3-3-3-3--3--3--3--3-|
|---------------------------------------|
|
| W
|---------------------------------------|
|---------------------------------------|
|---------------------------------------|
|---------------------------------------|
|---------------------------------------|
|---------------------------------------|


   E     S  S +S   S  E     S  S  S  S  S  S  S  S
|--------------------------------------------------|
|--------------------------------------------------|
|--9-----x--9-(9)--x--9-----x--9--x--9--7--7--7--7-|
|--x-----x--x-(x)--x--x-----x--x--x--x--x--x--x--x-|
|--7-----x--7-(7)--x--7-----x--7--x--7--5--5--5--5-|
|--------------------------------------------------|
|
| Gtr II
|  S  S  S  S  S   S  S  S  S  S  S  S  S  S  S  S
|--------------------------------------------------|
|--------------------------------------------------|
|--5--5--5--5--5---5--5--5--5--5--5--5--5--5--5--5-|
|--x--x--x--x--x---x--x--x--x--x--x--x--x--x--x--x-|
|--3--3--3--3--3---3--3--3--3--3--3--3--3--3--3--3-|
|--------------------------------------------------|
|
| Gtr IV
|  <
|  S  S  S  S  S   S  S  S  S  S  S  S  S  S  S  S
|--------------------------------------------------|
|-10-10-10-10-10--10-10-10-10-10-10-10-12-12-12-12-|
|-11-11-11-11-11--11-11-11-11-11-11-11-12-12-12-12-|
|--------------------------------------------------|
|--------------------------------------------------|
|--------------------------------------------------|


     E     S  S +S   S  E     S  S  S  S  S  S  S  S
||---------------------------------------------------|
||o--------------------------------------------------|
||---9-----x--9-(9)--x--9-----x--9--x--9-12-12-12-12-|
||---x-----x--x-(x)--x--x-----x--x--x--x--x--x--x--x-|
||o--7-----x--7-(7)--x--7-----x--7--x--7-10-10-10-10-|
||---------------------------------------------------|
|
|    S  S  S  S  S   S  S  S  S  S  S  S  S  S  S  S
||---------------------------------------------------|
||o-15-15-15-15-15--15-13-13-13-13-13-13-13-13-13-13-|
||--16-16-16-16-16--16-14-14-14-14-14-14-14-14-14-14-|
||---------------------------------------------------|
||o--------------------------------------------------|
||---------------------------------------------------|


   E     S  S +S   S  E     S  S  S  S  S  S  S  S
|----------------------------------------------------||
|---------------------------------------------------o||
|--9-----x--9-(9)--x--9-----x--9--x--9--7--7--7--7---||
|--x-----x--x-(x)--x--x-----x--x--x--x--x--x--x--x---||
|--7-----x--7-(7)--x--7-----x--7--x--7--5--5--5--5--o||
|----------------------------------------------------||
|
|  S  S  S  S  S   S  S  S  S  S  S  S  S  S  S  S
|----------------------------------------------------||
|-12-12-12-12-12--12-10-10-10-10-10-10-10-10-10-10--o||
|-12-12-12-12-12--12-11-11-11-11-11-11-11-11-11-11---||
|----------------------------------------------------||
|---------------------------------------------------o||
|----------------------------------------------------||


   E     S  S +S   S  E     S  S  S  S  S  S  S  S
|--------------------------------------------------|
|--------------------------------------------------|
|--9-----x--9-(9)--x--9-----x--9--x--9-12-12-12-12-|
|--x-----x--x-(x)--x--x-----x--x--x--x--x--x--x--x-|
|--7-----x--7-(7)--x--7-----x--7--x--7-10-10-10-10-|
|--------------------------------------------------|
|
|  S  S  S  S  S   S  S  S  S  S  S  S  S  S  S  S
|--------------------------------------------------|
|-17-17-17-17-17--17-15-15-15-15-15-15-15-15-15-15-|
|-17-17-17-17-17--17-16-16-16-16-16-16-16-16-16-16-|
|--------------------------------------------------|
|--------------------------------------------------|
|--------------------------------------------------|


   E     S  S +S   S  E     S  S  S  S  S  S  S  S
|--------------------------------------------------|
|--------------------------------------------------|
|--9-----x--9-(9)--x--9-----x--9--x--9--7--7--7--7-|
|--x-----x--x-(x)--x--x-----x--x--x--x--x--x--x--x-|
|--7-----x--7-(7)--x--7-----x--7--x--7--5--5--5--5-|
|--------------------------------------------------|
|
|  S  S  S  S  S   S  S  S  S  S  S  S  S  S  S  S
|--------------------------------------------------|
|-13-13-13-13-13--13-12-12-12-12-12-12-12-12-12-12-|
|-14-14-14-14-14--14-12-12-12-12-12-12-12-12-12-12-|
|--------------------------------------------------|
|--------------------------------------------------|
|--------------------------------------------------|


   E     S  S +S   S  E     S  S  S  S  S  S  S  S
|--------------------------------------------------|
|--------------------------------------------------|
|--9-----x--9-(9)--x--9-----x--9--x--9-12-12-12-12-|
|--x-----x--x-(x)--x--x-----x--x--x--x--x--x--x--x-|
|--7-----x--7-(7)--x--7-----x--7--x--7-10-10-10-10-|
|--------------------------------------------------|
|
|  S  S  S  S  S   S  S  S  S  S  S  S  S  S  S  S
|--------------------------------------------------|
|-19-19-19-19-19--19-19-19-20-20-20-20-20-20-20-20-|
|-19-19-19-19-19--19-19-19-21-21-21-21-21-21-21-21-|
|--------------------------------------------------|
|--------------------------------------------------|
|--------------------------------------------------|


   E     S  S  S  S  E     S  S  S  S  S  S  S  S
|-------------------------------------------------|
|-------------------------------------------------|
|-11-----x-11-11--x-11-----x-11--x-11-11-11-11-11-|
|--x-----x--x--x--x--x-----x--x--x--x--x--x--x--x-|
|--9-----x--9--9--x--9-----x--9--x--9--9--9--9--9-|
|-------------------------------------------------|
|
|  S  S  S  S  S  S  S  S  S  S  S  S  S  S  S  S
|-------------------------------------------------|
|-22-22-22-22-22-22-22-22-22-22-22-22-22-22-22-22-|
|-23-23-23-23-23-23-23-23-23-23-23-23-23-23-23-23-|
|-------------------------------------------------|
|-------------------------------------------------|
|-------------------------------------------------|


 Breakdown
  Q=124
  S S S S H.                             S S S S H.
|--------------------------------------|--------------------------------------|
|--------------------------------------|--------------------------------------|
|-7-7-7-7------------------------------|-7-7-7-7------------------------------|
|-x-x-x-x------------------------------|-x-x-x-x------------------------------|
|-5-5-5-5------------------------------|-5-5-5-5------------------------------|
|-0-0-0-0------------------------------|-0-0-0-0------------------------------|
|
| S S S S S  S S S S  S  S S  S S  S S   S S S S S  S S S S T T S S  S S S S
|---------------------8----8----8----8-|--------------------7h8p7-------------|
|------------8---8---12-12---12---12---|------------8---8---------8S10S8p7p0--|
|-7-7-7-7----9---9---------------------|-7-7-7-7----9---9---------------------|
|-x-x-x-x------------------------------|-x-x-x-x------------------------------|
|-5-5-5-5------------------------------|-5-5-5-5------------------------------|
|-0-0-0-0------------------------------|-0-0-0-0------------------------------|


  S S S S H.                          e e Q         e e Q
|-----------------------------------|-----------------------------|
|-----------------------------------|-----------------------------|
|-7-7-7-7---------------------------|-5-5-----------4-4-----------|
|-x-x-x-x---------------------------|-x-x-----------x-x-----------|
|-5-5-5-5---------------------------|-3-3-----------2-2-----------|
|-----------------------------------|-----------------------------|
|
|                                           |-3-|         |-3-|
| S S S S S  S S S +S  S S S +S  E.   e e S S S S S e e S S S S S
|-----------------------------------|-----------------------------|
|-----------------------------------|-----------------------------|
|-7-7-7-7---------------------------|-5-5-x-4h5p4p0-4-4-x---------|
|-x-x-x-x---------------------------|-x-x-x---------x-x-x-4h5p4p0-|
|-5-5-5-5-x--5-x-3-(3)-3-x-5-(5)-5--|-3-3-x---------2-2-x---------|
|---------x--7-x-5-(5)-5-x-7-(7)-7--|-----------------------------|


  S S S S H.                             S S S S H.
|--------------------------------------|--------------------------------------|
|--------------------------------------|--------------------------------------|
|-7-7-7-7------------------------------|-7-7-7-7------------------------------|
|-x-x-x-x------------------------------|-x-x-x-x------------------------------|
|-5-5-5-5------------------------------|-5-5-5-5------------------------------|
|-0-0-0-0------------------------------|-0-0-0-0------------------------------|
|
| S S S S S  S S S S  S  S S  S S  S S   S S S S S  S S S S T T S S  S S S S
|---------------------8----8----8----8-|--------------------7h8p7-------------|
|------------8---8---12-12---12---12---|------------8---8---------8S10S8p7p0--|
|-7-7-7-7----9---9---------------------|-7-7-7-7----9---9---------------------|
|-x-x-x-x------------------------------|-x-x-x-x------------------------------|
|-5-5-5-5------------------------------|-5-5-5-5------------------------------|
|-0-0-0-0------------------------------|-0-0-0-0------------------------------|


  S S S S H.                          e e Q  e e Q
|-----------------------------------|---------------|
|-----------------------------------|---------------|
|-7-7-7-7---------------------------|-5-5----4-4----|
|-x-x-x-x---------------------------|-x-x----x-x----|
|-5-5-5-5---------------------------|-3-3----2-2----|
|-----------------------------------|---------------|
|
| S S S S S  S S S +S  S S S +S  E.   e e Q  e e Q
|-----------------------------------|---------------|
|-----------------------------------|---------------|
|-7-7-7-7---------------------------|-5-5----4-4----|
|-x-x-x-x---------------------------|-x-x----x-x----|
|-5-5-5-5-x--5-x-3-(3)-3-x-5-(5)-5--|-3-3----2-2----|
|---------x--7-x-5-(5)-5-x-7-(7)-7--|---------------|


 Heavy Break
  S S S S H.                             S S S S H.
|--------------------------------------|--------------------------------------|
|--------------------------------------|--------------------------------------|
|-7-7-7-7------------------------------|-7-7-7-7------------------------------|
|-x-x-x-x------------------------------|-x-x-x-x------------------------------|
|-5-5-5-5------------------------------|-5-5-5-5------------------------------|
|-0-0-0-0------------------------------|-0-0-0-0------------------------------|
|
| S S S S S  S S S S  S  S S  S S  S S   S S S S S  S S S S T T S S  S S S S
|---------------------8----8----8----8-|--------------------7h8p7-------------|
|------------8---8---12-12---12---12---|------------8---8---------8S10S8p7p0--|
|-7-7-7-7----9---9---------------------|-7-7-7-7----9---9---------------------|
|-x-x-x-x------------------------------|-x-x-x-x------------------------------|
|-5-5-5-5------------------------------|-5-5-5-5------------------------------|
|-0-0-0-0------------------------------|-0-0-0-0------------------------------|


  S S S S H.                          e e Q         e e Q
|-----------------------------------|-----------------------------|
|-----------------------------------|-----------------------------|
|-7-7-7-7---------------------------|-5-5-----------4-4-----------|
|-x-x-x-x---------------------------|-x-x-----------x-x-----------|
|-5-5-5-5---------------------------|-3-3-----------2-2-----------|
|-----------------------------------|-----------------------------|
|
|                                           |-3-|         |-3-|
| S S S S S  S S S +S  S S S +S  E.   e e S S S S S e e S S S S S
|-----------------------------------|-----------------------------|
|-----------------------------------|-----------------------------|
|-7-7-7-7---------------------------|-5-5-x-4h5p4p0-4-4-x---------|
|-x-x-x-x---------------------------|-x-x-x---------x-x-x-4h5p4p0-|
|-5-5-5-5-x--5-x-3-(3)-3-x-5-(5)-5--|-3-3-x---------2-2-x---------|
|---------x--7-x-5-(5)-5-x-7-(7)-7--|-----------------------------|


  S S S S H.                             S S S S H.
|--------------------------------------|--------------------------------------|
|--------------------------------------|--------------------------------------|
|-7-7-7-7------------------------------|-7-7-7-7------------------------------|
|-x-x-x-x------------------------------|-x-x-x-x------------------------------|
|-5-5-5-5------------------------------|-5-5-5-5------------------------------|
|-0-0-0-0------------------------------|-0-0-0-0------------------------------|
|
| S S S S S  S S S S  S  S S  S S  S S   S S S S S  S S S S T T S S  S S S S
|---------------------8----8----8----8-|--------------------7h8p7-------------|
|------------8---8---12-12---12---12---|------------8---8---------8S10S8p7p0--|
|-7-7-7-7----9---9---------------------|-7-7-7-7----9---9---------------------|
|-x-x-x-x------------------------------|-x-x-x-x------------------------------|
|-5-5-5-5------------------------------|-5-5-5-5------------------------------|
|-0-0-0-0------------------------------|-0-0-0-0------------------------------|


  S S S S H.                          e e Q         e e Q
|-----------------------------------|-----------------------------|
|-----------------------------------|-----------------------------|
|-7-7-7-7---------------------------|-5-5-----------4-4-----------|
|-x-x-x-x---------------------------|-x-x-----------x-x-----------|
|-5-5-5-5---------------------------|-3-3-----------2-2-----------|
|-----------------------------------|-----------------------------|
|
|                                           |-3-|         |-3-|
| S S S S S  S S S +S  S S S +S  E.   e e S S S S S e e S S S S S
|-----------------------------------|-----------------------------|
|-----------------------------------|-----------------------------|
|-7-7-7-7---------------------------|-5-5-x-4h5p4p0-4-4-x---------|
|-x-x-x-x---------------------------|-x-x-x---------x-x-x-4h5p4---|
|-5-5-5-5-x--5-x-3-(3)-3-x-5-(5)-5--|-3-3-x---------2-2-x-------5-|
|---------x--7-x-5-(5)-5-x-7-(7)-7--|-----------------------------|


   Buildup
    Q.=90
   6/8
    Gtr III
     PM------|   PM--|         PM--|       PM--|
     S S S S S S S S S S S S   S S S S S S S S S S S S
||---------------------------|--------------------------|
||o--------------------------|--------------------------|
||---------------------------|--------------------------|
||---------------------------|-----------------------5--|
||o-h7-7-7-----5h7-7-7-----5h|=7-7-7-----5h7-7-7--------|
||---------------------------|--------------------------|


   PM--|       PM--|         PM--|       PM--|
   S S S S S S S S S S S S   S S S S S S S S S S S S  3x
|--------------------------|--------------------------||
|--------------------------|-------------------------o||
|--------------------------|--------------------------||
|-h7-7-7-----5h7-7-7-------|--------------------------||
|------------------------7h|=9-9-9-----7h9-9-9-----5-o||
|--------------------------|--------------------------||


   PM------|   PM--|         PM--|       PM--|
   S S S S S S S S S S S S   S S S S S S S S S S S S
|--------------------------|-------------------------|
|--------------------------|-------------------------|
|--------------------------|-------------------------|
|--------------------------|-----------------------5-|
|-h7-7-7-----5h7-7-7-----5h|=7-7-7-----5h7-7-7-------|
|--------------------------|-------------------------|


   PM---|       PM--|         PM---|       PM--|
   S  S S S S S S S S S S S   S  S S S S S S S S S S S
|---------------------------|--------------------------|
|---------------------------|--------------------------|
|---------------------------|--------------------------|
|-h7--7-7-----5h7-7-7-------|--------------------------|
|-------------------------7h|=9--9-9-----7h9-9-9-----5-|
|---------------------------|--------------------------|
|
| Gtr IV
|  H.                         Q.           Q       S S
|---------------------------|--------------------------|
|---------------------------|--------------------------|
|---------------------------|--------------------------|
|---------------------------|------------------------4-|
|---------------------------|--------------------------|
|---------------------------|--------------------------|


     PM------|   PM--|         PM--|       PM--|
     S S S S S S S S S S S S   S S S S S S S S S S S S
||---------------------------|-------------------------|
||o--------------------------|-------------------------|
||---------------------------|-------------------------|
||---------------------------|-----------------------5-|
||o-h7-7-7-----5h7-7-7-----5h|=7-7-7-----5h7-7-7-------|
||---------------------------|-------------------------|
|
|    PM------|   PM--|         PM--|       PM--|
|    S S S S S S S S S S S S   S S S S S S S S S S S S
||---------------------------|-------------------------|
||o--------------------------|-------------------------|
||---------------------------|-----------------------4-|
||--h5-5-5-----4h5-5-5-----4h|=5-5-5-----4h5-5-5-------|
||o--------------------------|-------------------------|
||---------------------------|-------------------------|


  1.
   PM--|       PM--|         PM--|       PM--|
   S S S S S S S S S S S S   S S S S S S S S S S S S
|--------------------------|--------------------------||
|--------------------------|-------------------------o||
|--------------------------|--------------------------||
|-h7-7-7-----5h7-7-7-------|--------------------------||
|------------------------7h|=9-9-9-----7h9-9-9-----5-o||
|--------------------------|--------------------------||
|
|  PM------|   PM--|         PM--|       PM--|
|  S S S S S S S S S S S S   S S S S S S S S S S S S
|--------------------------|--------------------------||
|--------------------------|-------------------------o||
|-h5-5-5-----4h5-5-5-------|--------------------------||
|------------------------5h|=7-7-7-----5h7-7-7-----4--||
|--------------------------|-------------------------o||
|--------------------------|--------------------------||


  2.
   PM--|       PM--|         PM--|       PM--|
   S S S S S S S S S S S S   S S S S S S S S S S S S
|--------------------------|-------------------------|
|--------------------------|-------------------------|
|--------------------------|-------------------------|
|-h7-7-7-----5h7-7-7-------|-------------------------|
|------------------------7h|=9-9-9-----7h9-9-9-------|
|--------------------------|-------------------------|
|
|  PM------|   PM--|
|  S S S S S S S S S S S S   S S S S S S S S S S S S
|--------------------------|-------------------------|
|--------------------------|-------------------------|
|-h5-5-5-----4h5-5-5-------|-------------------------|
|------------------------5h|=7-7-7-----5h7-7-7-------|
|--------------------------|-------------------------|
|--------------------------|-------------------------|


 "Three feel" Break
  Q=176
 3/4
  E E E E Q    E E E E Q    E E E E q     Q    Q    Q
|------------|------------|------------|-<7>------------|
|------------|------------|------------|------<7>-------|
|------------|------------|------------|-----------<7>--|
|-4h5-5-5----|-4h5-5-5----|-4h5-5-5----|----------------|
|-5h7-7-7----|-5h7-7-7----|-5h7-7-7----|----------------|
|---------0--|---------0--|---------0--|----------------|
|
| H.           H.           H.            H.
|------------|------------|------------|----------------|
|------------|------------|------------|--0-------------|
|------------|------------|------------|--0-------------|
|------------|------------|------------|--0-------------|
|------------|------------|------------|--0-------------|
|------------|------------|------------|--0-------------|


     E  E  E  E Q     E  E  E  E Q     E  E  E  E Q     E  E  E  E q
||-----------------|----------------|----------------|-----------------|
||o----------------|----------------|----------------|-----------------|
||-----------------|----------------|----------------|-----------------|
||---4h=5--5--5----|--4h=5--5--5----|--4h=5--5--5----|--4h=5--5--5-----|
||o--5h=7--7--7----|--5h=7--7--7----|--5h=7--7--7----|--5h=7--7--7-----|
||--------------0--|-------------0--|-------------0--|-------------0---|
|
|    E  E  E  E Q     E  E  E  E Q     E  E  E  E Q     E  E  E  E Q
||-----------------|----------------|----------------|-----------------|
||o----------------|----------------|----------------|-----------------|
||--11S12-12-12----|-11S12-12-12----|-11S12-12-12----|-11S12-12-12-----|
||---xS=x--x--x----|--xS=x--x--x----|--xS=x--x--x----|--xS=x--x--x-----|
||o--9S10-10-10----|--9S10-10-10----|--9S10-10-10----|--9S10-10-10-----|
||--------------0--|-------------0--|-------------0--|-------------0---|


  E E E E E E   E E E E E E   E E E E E E   E E E E E E
|-------------|-------------|-------------|-------------|
|-------------|-------------|-------------|-------------|
|-5---5---5---|-4---4---4---|-2---2---2---|-4---4---4---|
|-7---7---7---|-5---5---5---|-4---4---4---|-5---5---5---|
|-------------|-------------|-------------|-------------|
|-------------|-------------|-------------|-------------|
|
| E E E E E E   E E E E E E   E E E E E E   E E E E E E
|-------------|-------------|-------------|-------------|
|-------------|-------------|-------------|-------------|
|---5---5---5-|---4---4---4-|---2---2---2-|---4---4---4-|
|---7---7---7-|---5---5---5-|---4---4---4-|---5---5---5-|
|-------------|-------------|-------------|-------------|
|-------------|-------------|-------------|-------------|


   E  E  E  E Q     E  E  E  E Q     E  E  E  E Q     E  E  E  E q
|----------------|----------------|----------------|----------------|
|----------------|----------------|----------------|----------------|
|----------------|----------------|----------------|----------------|
|--4h=5--5--5----|--4h=5--5--5----|--4h=5--5--5----|--4h=5--5--5----|
|--5h=7--7--7----|--5h=7--7--7----|--5h=7--7--7----|--5h=7--7--7----|
|-------------0--|-------------0--|-------------0--|-------------0--|
|
|  E  E  E  E Q     E  E  E  E Q     E  E  E  E Q     E  E  E  E Q
|----------------|----------------|----------------|----------------|
|----------------|----------------|----------------|----------------|
|-11S12-12-12----|-11S12-12-12----|-11S12-12-12----|-11S12-12-12----|
|--xS=x--x--x----|--xS=x--x--x----|--xS=x--x--x----|--xS=x--x--x----|
|--9S10-10-10----|--9S10-10-10----|--9S10-10-10----|--9S10-10-10----|
|-------------0--|-------------0--|-------------0--|-------------0--|


  E E E E E E   E E E E E E   E E E E E E   E E E E E E
|-------------|-------------|-------------|--------------||
|-------------|-------------|-------------|-------------o||
|-5---5---5---|-4---4---4---|-7---7---7---|-5---5---5----||
|-7---7---7---|-5---5---5---|-9---9---9---|-7---7---7----||
|-------------|-------------|-------------|-------------o||
|-------------|-------------|-------------|--------------||
|
| E E E E E E   E E E E E E   E E E E E E   E E E E E E
|-------------|-------------|-------------|--------------||
|-------------|-------------|-------------|-------------o||
|---5---5---5-|---4---4---4-|---7---7---7-|---5---5---5--||
|---7---7---7-|---5---5---5-|---9---9---9-|---7---7---7--||
|-------------|-------------|-------------|-------------o||
|-------------|-------------|-------------|--------------||


 Guitar Break
 4/4
  W            S  S    E E    S S    E E    E E
|-0--------|-------------------------------------|
|-0--------|-h17--0p-h17-0p-h17-0p-h17-0p-h17-0p-|
|-0--------|-------------------------------------|
|-0--------|-------------------------------------|
|-0--------|-------------------------------------|
|-0--------|-------------------------------------|
|
| W           +W
|-0--------|--(0)--------------------------------|
|-0--------|--(0)--------------------------------|
|-0--------|--(0)--------------------------------|
|-0--------|--(0)--------------------------------|
|-0--------|--(0)--------------------------------|
|-0--------|--(0)--------------------------------|


    E  E    E E    E E    E E      E  E    E E  E E Q
|------------------------------|-----------------------|
|-h17--0p-h17-0p-h17-0p-h17-0p-|-h17--0p-h17-0p-x------|
|------------------------------|-----------------------|
|------------------------------|-----------------------|
|------------------------------|-----------------------|
|------------------------------|-----------------------|
|
|  +W                             +H            H
|--(0)-------------------------|--(0)-----------x------|
|--(0)-------------------------|--(0)-----------x------|
|--(0)-------------------------|--(0)-----------x------|
|--(0)-------------------------|--(0)-----------x------|
|--(0)-------------------------|--(0)-----------x------|
|--(0)-------------------------|--(0)-----------x------|


    Q=88
     E.  S  +E   E  +S   E.  +Q      E.  S  +E   E  +S   E.  +Q
||--19----------------------------|-------------23-(23)-24--(24)--|
||o-----19-(19)-20-(20)-----------|-19----------------------------|
||----------------------19--(19)--|-----19-(19)-------------------|
||--------------------------------|-------------------------------|
||o-------------------------------|-------------------------------|
||--------------------------------|-------------------------------|
|
|    E.  S  +E   E  +S   E.  +Q      E.  S  +E   E  +S   E.  +Q
||--------------------------------|-------------------------------|
||o-------------------------------|-------------------------------|
||--11----------------------------|-------------11-(11)-12--(12)--|
||------12-(12)-14-(14)-----------|-12----------------------------|
||o---------------------14--(14)--|-----14-(14)-------------------|
||--------------------------------|-------------------------------|


                                  1.
   E.  S  +E   E  +S   E.  +Q      E.  S  +E   E  +S   E.  +Q
|-19----------------------------|-------------23-(23)-24--(24)----||
|-----19-(19)-20-(20)-----------|-19-----------------------------o||
|---------------------19--(19)--|-----19-(19)---------------------||
|-------------------------------|---------------------------------||
|-------------------------------|--------------------------------o||
|-------------------------------|---------------------------------||
|
|  E.  S  +E   E  +S   E.  +Q      E.  S  +E   E  +S   E.  +Q
|-------------------------------|---------------------------------||
|-------------------------------|--------------------------------o||
|-11----------------------------|-------------11-(11)-12--(12)----||
|-----12-(12)-14-(14)-----------|---------------------------------||
|---------------------14--(14)--|-12--10-(10)--------------------o||
|-------------------------------|---------------------------------||


  2.
   E.  S  +E   E  +S   E. Q
|-------------23-(23)-24--x----|
|-19---------------------------|
|-----19-(19)------------------|
|------------------------------|
|------------------------------|
|------------------------------|
|
|  E.  S  +E   E  +S   E. Q
|------------------------------|
|------------------------------|
|-------------11-(11)-12--x----|
|------------------------------|
|-12--10-(10)------------------|
|------------------------------|


    Gtr I
    PM--|
    |-3-|
    E E E H    +Q        E. S Q      S  S S  S  +S  S S  S
||--------3----(3)-----|--------------------10-(10)-----10-|
||o-------3----(3)-----|----8-x---------7S8---------7S8----|
||--------0----(0)-----|----7-x----------------------------|
||--------2----(2)-----|-----------------------------------|
||o-------2----(2)-----|-----------------------------------|
||--0-0-0-0----(0)-----|-----------------------------------|
|
|   Gtr II
|   PM--|
|   |-3-|
|   E E E H    +E  S S   E. S E S S +H
||--------3----(3)-----|----3-x----------------------------|
||o-------3----(3)-----|----3-x----------------------------|
||--------0----(0)-----|----0-x----------------------------|
||--------2----(2)-----|----0-x----------------------------|
||o-------2----(2)-----|----2-x-2h3-(3)--------------------|
||--0-0-0-0----(0)-0h2-|-3--3-x----------------------------|


                    1.
  PM--|
  |-3-|
  E E E H    +Q     H     S   S   S   S   S   S   S   S
|-------3----(3)--|---------------------------------------||
|-------3----(3)--|-0--------13------13------13------13--o||
|-------0----(0)--|-2----16------16------14------14-------||
|-------2----(2)--|-2-------------------------------------||
|-------2----(2)--|--------------------------------------o||
|-0-0-0-0----(0)--|---------------------------------------||
|
|                         <       <       <       <
| PM--|
| |-3-|
| E E E H    +Q     H    +S  +S  +S  +S  +S  +S  +S  +S
|-------3----(3)--|---------------------------------------||
|-------3----(3)--|-0----(0)-(0)-(0)-(0)-(0)-(0)-(0)-(0)-o||
|-------0----(0)--|-2----(2)-(2)-(2)-(2)-(2)-(2)-(2)-(2)--||
|-------2----(2)--|-2----(2)-(2)-(2)-(2)-(2)-(2)-(2)-(2)--||
|-------2----(2)--|--------------------------------------o||
|-0-0-0-0----(0)--|---------------------------------------||


  2.
  H.      Q
|--------------|
|-0-------x----|
|-2-------x----|
|-2-------x----|
|--------------|
|--------------|
|
| W
|--------------|
|-0------------|
|-2------------|
|-2------------|
|--------------|
|--------------|


 Bridge Thing in Three
  Q=176
 3/4
  Gtr III
   E   E  E  E  E  E    E   E  E  E  E  E
|--------------------|--------------------|
|-----13----13----13-|-----13----13----13-|
|-16-----16----16----|-14-----14----14----|
|--------------------|--------------------|
|--------------------|--------------------|
|--------------------|--------------------|
|
| Gtr IV
|  >
|  H.                  +H.
|--------------------|--------------------|
|--0-----------------|-(0)----------------|
|--2-----------------|-(2)----------------|
|--2-----------------|-(2)----------------|
|--------------------|--------------------|
|--------------------|--------------------|


   E   E  E  E  E  E    E   E  E  E  E  E
|--------------------|--------------------|
|-----13----13----13-|-----13----13----13-|
|-16-----16----16----|-14-----14----14----|
|--------------------|--------------------|
|--------------------|--------------------|
|--------------------|--------------------|
|
|  <
| +H.                  +H.
|--------------------|--------------------|
|-(0)----------------|-(0)----------------|
|-(2)----------------|-(2)----------------|
|-(2)----------------|-(2)----------------|
|--------------------|--------------------|
|--------------------|--------------------|


   E  E  E  E  E  E    E  E  E  E  E  E
|-------------------|-------------------|
|----13----13----13-|----13----13----13-|
|-16----16----16----|-14----14----14----|
|-------------------|-------------------|
|-------------------|-------------------|
|-------------------|-------------------|
|
|  PM------------------------------------
|  E  E  E  E  E  E    E  E  E  E  E  E
|-------------------|-------------------|
|-------------------|-------------------|
|-------------------|-------------------|
|-------------------|-------------------|
|-------------------|-------------------|
|--5--5--5--5--5--5-|--5--5--5--5--5--5-|


   E  E  E  E  E  E    E  E  E  E  E  E
|-------------------|--------------------|
|----13----13----13-|----13----13----13--|
|-16----16----16----|-14----14----14-----|
|-------------------|--------------------|
|-------------------|--------------------|
|-------------------|--------------------|
|
|------------------------------------|
|  E  E  E  E  E  E    E  E  E  E  E  E
|-------------------|--------------------|
|-------------------|--------------------|
|-------------------|--------------------|
|-------------------|--------------------|
|-------------------|--------------------|
|--5--5--5--5--5--5-|--5--5--5--5--5--5--|


   E  E  E  E  E  E    E  E  E  E  E  E
|-------------------|-------------------|
|----13----13----13-|----13----13----13-|
|-16----16----16----|-14----14----14----|
|-------------------|-------------------|
|-------------------|-------------------|
|-------------------|-------------------|
|
|  PM------------------------------------
|  E  E  E  E  E  E    E  E  E  E  E  E
|-------------------|-------------------|
|-------------------|-------------------|
|-------------------|-------------------|
|-------------------|-------------------|
|-------------------|-------------------|
|--3--3--3--3--3--3-|--3--3--3--3--3--3-|


   E  E  E  E  E  E    E  E  E  E  E  E
|-------------------|--------------------|
|----13----13----13-|----13----13----13--|
|-16----16----16----|-14----14----14-----|
|-------------------|--------------------|
|-------------------|--------------------|
|-------------------|--------------------|
|
|------------------------------------|
|  E  E  E  E  E  E    E  E  E  E  E  E
|-------------------|--------------------|
|-------------------|--------------------|
|-------------------|--------------------|
|-------------------|--------------------|
|-------------------|--------------------|
|--3--3--3--3--3--3-|--3--3--3--3--3--3--|


   E  E  E  E  E  E    E  E  E  E  E  E
|-------------------|-------------------|
|----13----13----13-|----13----13----13-|
|-16----16----16----|-14----14----14----|
|-------------------|-------------------|
|-------------------|-------------------|
|-------------------|-------------------|
|
|  PM------------------------------------
|  E  E  E  E  E  E    E  E  E  E  E  E
|-------------------|-------------------|
|-------------------|-------------------|
|-------------------|-------------------|
|-------------------|-------------------|
|-------------------|-------------------|
|--1--1--1--1--1--1-|--1--1--1--1--1--1-|


   E  E  E  E  E  E    E  E  E  E  E  E
|-------------------|--------------------|
|----13----13----13-|----13----13----13--|
|-16----16----16----|-14----14----14-----|
|-------------------|--------------------|
|-------------------|--------------------|
|-------------------|--------------------|
|
|------------------------------------|
|  E  E  E  E  E  E    E  E  E  E  E  E
|-------------------|--------------------|
|-------------------|--------------------|
|-------------------|--------------------|
|-------------------|--------------------|
|-------------------|--------------------|
|--1--1--1--1--1--1-|--1--1--1--1--1--1--|


   E  E  E  E  E  E    E  E  E  E  E  E
|-------------------|-------------------|
|----13----13----13-|----13----13----13-|
|-16----16----16----|-14----14----14----|
|-------------------|-------------------|
|-------------------|-------------------|
|-------------------|-------------------|
|
|  PM------------------------------------
|  E  E  E  E  E  E    E  E  E  E  E  E
|-------------------|-------------------|
|-------------------|-------------------|
|-------------------|-------------------|
|-------------------|-------------------|
|-------------------|-------------------|
|--3--3--3--3--3--3-|--3--3--3--3--3--3-|


   E  E  E  E  E  E    E  E  E  E  E  E
|-------------------|--------------------|
|----13----13----13-|----13----13----13--|
|-16----16----16----|-14----14----14-----|
|-------------------|--------------------|
|-------------------|--------------------|
|-------------------|--------------------|
|
|------------------------------------|
|  E  E  E  E  E  E    E  E  E  E  E  E
|-------------------|--------------------|
|-------------------|--------------------|
|-------------------|--------------------|
|-------------------|--------------------|
|-------------------|--------------------|
|--3--3--3--3--3--3-|--3--3--3--3--3--3--|


     E  E  E  E  E  E    E  E  E  E  E  E
||--------------------|-------------------|
||o----13----13----13-|----13----13----13-|
||--16----16----16----|-14----14----14----|
||--------------------|-------------------|
||o-------------------|-------------------|
||--------------------|-------------------|
|
|   Gtr III
|    E  E  E  E  E  E    E  E  E  E  E  E
||--------------------|-------------------|
||o-------------------|-------------------|
||--12-12-12-12-12-12-|-10-10-10-10-10-10-|
||--14-14-14-14-14-14-|-12-12-12-12-12-12-|
||o-------------------|-------------------|
||--------------------|-------------------|


                      1.,2.,3.
   E  E  E  E  E  E    E  E  E  E  E  E  4x
|-------------------|--------------------||
|----13----13----13-|----13----13----13-o||
|-16----16----16----|-14----14----14-----||
|-------------------|--------------------||
|-------------------|-------------------o||
|-------------------|--------------------||
|
|  E  E  E  E  E  E    E  E  E  E  E  E  4x
|-------------------|--------------------||
|-------------------|-------------------o||
|--9--9--9--9--9--9-|-10-10-10-10-10-10--||
|-10-10-10-10-10-10-|-12-12-12-12-12-12--||
|-------------------|-------------------o||
|-------------------|--------------------||


  4.
   E E H
|-----------|
|-----------|
|-14-x------|
|-----------|
|-----------|
|-----------|
|
|  E E H
|-----------|
|-----------|
|-10-x------|
|-12-x------|
|-----------|
|-----------|


 Heavy Bridge
  Gtr III
   Q  E  E  E  E    Q  E  E  E  E    Q  E  E  E  E    Q  E  E  E  E
|----------------|-10----10-------|----------------|-10----10-------|
|-12----12-------|-12-------12----|-12----12-------|-12-------12----|
|-12-------12----|-12----------12-|-12-------12----|-12----------12-|
|-14----------14-|----------------|-14----------14-|----------------|
|----------------|----------------|----------------|----------------|
|----------------|----------------|----------------|----------------|
|
| Gtr IV
|  Q  Q     Q       Q  Q     Q       Q  Q     Q       Q  Q     Q
|----------------|----------------|----------------|----------------|
|----------------|----------------|----------------|----------------|
|----------------|----------------|----------------|----------------|
|--2-------------|--2-------------|--2-------------|--2-------------|
|--2-------------|--2-------------|--2-------------|--2-------------|
|--0-------------|--0-------------|--0-------------|--0-------------|


   E  E  E  E  E  E    E  E  E  E  E  E
|-------------------|-------------------|
|----13----13----13-|----13----13----13-|
|-16----16----16----|-14----14----14----|
|-------------------|-------------------|
|-------------------|-------------------|
|-------------------|-------------------|
|
|  E  E  E  E  E  E    E  E  E  E  E  E
|-------------------|-------------------|
|-------------------|-------------------|
|-------------------|-------------------|
|-10-10-10-10-10-10-|--9--9--9--9--9--9-|
|--x--x--x--x--x--x-|--x--x--x--x--x--x-|
|--8--8--8--8--8--8-|--7--7--7--7--7--7-|


   E  E  E  E  E  E    E  E  E  E  E  E
|-------------------|-------------------|
|----13----13----13-|-------------------|
|-16----16----16----|----14----14----14-|
|-------------------|-16----16----16----|
|-------------------|-------------------|
|-------------------|-------------------|
|
|  E  E  E  E  E  E    E  E  E  E  E  E
|-------------------|-------------------|
|-------------------|-------------------|
|-------------------|-------------------|
|--7--7--7--7--7--7-|--9--9--5--5--4--4-|
|--x--x--x--x--x--x-|--x--x--x--x--x--x-|
|--5--5--5--5--5--5-|--7--7--3--3--2--2-|


   Q  E  E  E  E    Q  E  E  E  E    Q  E  E  E  E    Q   E  E  Q
|----------------|-10----10-------|----------------|-10--10h12p10--|
|-12----12-------|-12-------12----|-12----12-------|-12------------|
|-12-------12----|-12----------12-|-12-------12----|-12------------|
|-14----------14-|----------------|-14----------14-|---------------|
|----------------|----------------|----------------|---------------|
|----------------|----------------|----------------|---------------|
|
|  Q  Q     Q       Q  Q     Q       Q  Q     Q       Q   Q     Q
|----------------|----------------|----------------|---------------|
|----------------|----------------|----------------|---------------|
|----------------|----------------|----------------|---------------|
|--2-------------|--2-------------|--2-------------|--2------------|
|--2-------------|--2-------------|--2-------------|--2------------|
|--0-------------|--0-------------|--0-------------|--0------------|


   E  E  E  E  E  E    E  E  E  E  E  E
|-------------------|-------------------|
|----13----13----13-|----13----13----13-|
|-16----16----16----|-14----14----14----|
|-------------------|-------------------|
|-------------------|-------------------|
|-------------------|-------------------|
|
|  E  E  E  E  E  E    E  E  E  E  E  E
|-------------------|-------------------|
|-------------------|-------------------|
|-------------------|-------------------|
|-10-10-10-10-10-10-|--9--9--9--9--9--9-|
|--x--x--x--x--x--x-|--x--x--x--x--x--x-|
|--8--8--8--8--8--8-|--7--7--7--7--7--7-|


   E  E  E  E  E  E    E  E  E  E  E  E
|-------------------|-------------------|
|----13----13----13-|-------------------|
|-16----16----16----|----14----14----14-|
|-------------------|-16----16----16----|
|-------------------|-------------------|
|-------------------|-------------------|
|
|  E  E  E  E  E  E    E  E  E  E  E  E
|-------------------|-------------------|
|-------------------|-------------------|
|-------------------|-------------------|
|--7--7--7--7--7--7-|--9--9--5--5--4--4-|
|--x--x--x--x--x--x-|--x--x--x--x--x--x-|
|--5--5--5--5--5--5-|--7--7--3--3--2--2-|


     Q  E  E  E  E    Q  E  E  E  E    Q  E  E  E  E    Q  E  E  E  E
||-----------------|-10----10-------|----------------|-10----10--------|
||o-12----12-------|-12-------12----|-12----12-------|-12-------12-----|
||--12-------12----|-12----------12-|-12-------12----|-12----------12--|
||--14----------14-|----------------|-14----------14-|-----------------|
||o----------------|----------------|----------------|-----------------|
||-----------------|----------------|----------------|-----------------|
|
|    Q  Q     Q       Q  Q     Q       Q  Q     Q       Q  Q     Q
||-----------------|----------------|----------------|-----------------|
||o----------------|----------------|----------------|-----------------|
||-----------------|----------------|----------------|-----------------|
||---2-------------|--2-------------|--2-------------|--2--------------|
||o--2-------------|--2-------------|--2-------------|--2--------------|
||---0-------------|--0-------------|--0-------------|--0--------------|


   E  E  E  E  E  E    E  E  E  E  E  E
|-------------------|-------------------|
|----13----13----13-|----13----13----13-|
|-16----16----16----|-14----14----14----|
|-------------------|-------------------|
|-------------------|-------------------|
|-------------------|-------------------|
|
|  E  E  E  E  E  E    E  E  E  E  E  E
|-------------------|-------------------|
|-------------------|-------------------|
|-------------------|-------------------|
|-10-10-10-10-10-10-|--9--9--9--9--9--9-|
|--x--x--x--x--x--x-|--x--x--x--x--x--x-|
|--8--8--8--8--8--8-|--7--7--7--7--7--7-|


                      1.
   E  E  E  E  E  E    E  E  E  E  E  E
|-------------------|--------------------||
|----13----13----13-|-------------------o||
|-16----16----16----|----14----14----14--||
|-------------------|-16----16----16-----||
|-------------------|-------------------o||
|-------------------|--------------------||
|
|  E  E  E  E  E  E    E  E  E  E  E  E
|-------------------|--------------------||
|-------------------|-------------------o||
|-------------------|--------------------||
|--7--7--7--7--7--7-|--9--9--5--5--4--4--||
|--x--x--x--x--x--x-|--x--x--x--x--x--x-o||
|--5--5--5--5--5--5-|--7--7--3--3--2--2--||


  2.       H.=H
   E  E  E  E  E  E
|----------------------|
|----------------------|
|----14----14----14----|
|-16----16----16-------|
|----------------------|
|----------------------|
|
|  E  E  E  E  E  E
|----------------------|
|----------------------|
|----------------------|
|--9--9--5--5--4--4----|
|--x--x--x--x--x--x----|
|--7--7--3--3--2--2----|


   Outro
    Q.=54
   6/8
    Gtr V
     E  S S S S  E   S  E.    E   S  E S  S  S S S S S
||-------------------------|--------------0------------|
||o-------0---0---------0--|---------0-4-------0-------|
||---1----1-1-1---------1--|---------1---------1---1---|
||---4------4----4---4-----|--4---4----------------4---|
||o-----2--------2--(2)----|--2--(2)---------2---2---2-|
||------0------------------|--0---0----------0---0---0-|
|
|   Gtr VI
|    Q.         +Q.          +Q.         +Q.
||--^0----------(0)--------|-(0)---------(0)-----------|
||o-^0----------(0)--------|-(0)---------(0)-----------|
||--^1----------(1)--------|-(1)---------(1)-----------|
||--^4----------(4)--------|-(4)---------(4)-----------|
||o-^2----------(2)--------|-(2)---------(2)-----------|
||--^0----------(0)--------|-(0)---------(0)-----------|


                          1.
   E  S S S S  E   S  E.    Q   S S  Q   S S
|------------------------|----------------------||
|-------0---0---------0--|---------------------o||
|-------1-1-1---------1--|-^4---4-4-^2---2-2----||
|-----4---4----4---4-----|-^x---x-4-^x---x-2----||
|--2--2--------2--(2)----|-^2---2-2-^0---0-0---o||
|--0--0------------------|-^4---4-4-^2---2-2----||
|
|  Q.         +Q.           Q.       Q.
|-^0----------(0)--------|----------------------||
|-^0----------(0)--------|---------------------o||
|-^1----------(1)--------|-^4-------^2----------||
|-^4----------(4)--------|-^x-------^x----------||
|-^2----------(2)--------|-^2-------^0---------o||
|-^0----------(0)--------|-^4-------^2----------||


  2.
   Q.    Q.
|--------------|
|--------------|
|-^4----^8-----|
|-^x----^x-----|
|-^2----^6-----|
|-^4----^7-----|
|
|  Q.    Q.
|--------------|
|--------------|
|-^4----^8-----|
|-^x----^x-----|
|-^2----^6-----|
|-^4----^7-----|


  E   E  E  E   E  E   E   E  E  E   E  E
|-----------0--------|-----------0--------|
|-----------0---0----|-----------0---0----|
|-------13-13--13----|-------13-13--13----|
|-------16--------16-|-------16--------16-|
|----14--------------|----14--------------|
|-0------------------|-0------------------|
|
| Q.        Q.         Q.        Q.
|----------^0--------|----------^0--------|
|----------^0--------|----------^0--------|
|----------^1--------|----------^1--------|
|--------------------|--------------------|
|--------------------|--------------------|
|-0------------------|-0------------------|


  E   E  E  E   E  E    E   +S   S  S  S  E   E  E
|-----------0--------|-----------------------------|
|-----------0---0----|--0---(0)-----0--0------0----|
|-------13-13--13----|-15--(15)----15-15-16--15-13-|
|-------16--------16-|-16--(16)-16-----------------|
|----14--------------|-----------------------------|
|-0------------------|-----------------------------|
|
| Q.        Q.          Q.                Q.
|----------^0--------|-------------------^2--------|
|----------^0--------|-------------------^0--------|
|----------^1--------|-------------------^3--------|
|--------------------|-----------------------------|
|--------------------|-----------------------------|
|-0------------------|--2--------------------------|


  E  S  S S  S  E  S  S S  S   E  S  S S  S  E  S  S E
|---------------0------------|---------------0---------|
|---------------0------------|---------------0---------|
|---------------1------------|---------------1---------|
|------18---16-------18---16-|------18---16-------16---|
|----------------------------|-------------------------|
|-0--0----0--------0----0----|-0--0----0--------0----0-|
|
| Q.            Q.             Q.            Q.
|--------------^0------------|--------------^0---------|
|--------------^0------------|--------------^0---------|
|--------------^1------------|--------------^1---------|
|----------------------------|-------------------------|
|----------------------------|-------------------------|
|-0--------------------------|-0-----------------------|


  H.=H
   E  S  S  E  E  S  S  E    E  S  S  E  E  S  S  E
|-------------------------|--------------------------|
|--------0----------------|--------0-----------------|
|-15-15-15-15-16----16----|-18----18----18----18-----|
|-16-16-16-16-16-16----16-|-16-16----16-16-16----16--|
|-------------------------|--------------------------|
|-----0-------------------|--------------------------|
|
|  E  E     E  E  E     E    E  E     E  E  E     E
|-------------------------|--------------------------|
|-------------------------|--------------------------|
|-------------------------|--------------------------|
|-------------------------|--------------------------|
|-------------------------|--------------------------|
|--2--2-----2--2--2-----2-|--2--2-----2--2--2-----2--|


  Q.=50
   Q.    +Q.      +Q.          +Q.            +Q.    +Q.      +Q.    +Q.
|--0-----(0)---|--(0)----------(0)---------|--(0)----(0)---|--(0)----(0)---*|
|--0-----(0)---|--(0)----------(0)---------|--(0)----(0)---|--(0)----(0)---*|
|-13----(13)---|-(13)---------(13)---------|-(13)---(13)---|-(13)---(13)---*|
|-16----(16)---|-(16)---------(16)---------|-(16)---(16)---|-(16)---(16)---*|
|-14----(14)---|-(14)---------(14)---------|-(14)---(14)---|-(14)---(14)---*|
|--0-----(0)---|--(0)----------(0)---------|--(0)----(0)---|--(0)----(0)---*|
|
|                  >   <   >    <   >          <      >        <
|  Q.    +Q.      +E  +E  +E   +E  +E  +E     +Q.    +Q.      +Q.    +Q.
|--0-----(0)---|--(0)-(0)-(0)--(0)-(0)-(0)-|--(0)----(0)---|--(0)----(0)---*|
|--0-----(0)---|--(0)-(0)-(0)--(0)-(0)-(0)-|--(0)----(0)---|--(0)----(0)---*|
|--1-----(1)---|--(1)-(1)-(1)--(1)-(1)-(1)-|--(1)----(1)---|--(1)----(1)---*|
|--4-----(4)---|--(4)-(4)-(4)--(4)-(4)-(4)-|--(4)----(4)---|--(4)----(4)---*|
|--2-----(2)---|--(2)-(2)-(2)--(2)-(2)-(2)-|--(2)----(2)---|--(2)----(2)---*|
|--0-----(0)---|--(0)-(0)-(0)--(0)-(0)-(0)-|--(0)----(0)---|--(0)----(0)---*|



Duration Legend
---------------
W - whole; H - half; Q - quarter; E - 8th; S - 16th; T - 32nd; X - 64th; a - acciaccatura
+ - note tied to previous; . - note dotted; .. - note double dotted
Uncapitalized letters represent notes that are staccato (1/2 duration)
Irregular groupings are notated above the duration line
Duration letters will always appear directly above the note/fret number it represents the
duration for.  Duration letters with no fret number below them represent rests.  Multi-
bar rests are notated in the form Wxn, where n is the number of bars to rest for.  Low
melody durations appear below the staff

Tablature Legend
----------------
 h   - hammer-on
 p   - pull-off
 b   - bend
 pb  - pre-bend
 r   - bend release (if no number after the r, then release immediately)
 /\  - slide into or out of (from/to "nowhere")
 s   - legato slide
 S   - shift slide
 - natural harmonic
[n]  - artificial harmonic
n(n) - tapped harmonic
 ~   - vibrato
 tr  - trill
 T   - tap
 TP  - trem. picking
 PM  - palm muting
\n/  - tremolo bar dip; n = amount to dip
 \n  - tremolo bar down
 n/  - tremolo bar up
/n\  - tremolo bar inverted dip
 =   - hold bend; also acts as connecting device for hammers/pulls
 <> - volume swell (louder/softer)
 x   - on rhythm slash represents muted slash
 o   - on rhythm slash represents single note slash

Misc Legend
-----------
 |  - bar
||  - double bar
||o - repeat start
o|| - repeat end
*|  - double bar (ending)
 :  - bar (freetime)
 $  - Segno
 &  - Coda
Tempo markers -  = BPM(8/16=s8/s16), where s8 = swing 8ths, s16 = swing 16ths

Tap to rate this tab
 
# A B C D E F G H I J K L M N O P Q R S T U V W X Y Z