Guitaretab - guitar tabs
Song name
# A B C D E F G H I J K L M N O P Q R S T U V W X Y Z

The Fall Of Troy - Ghostship Part 1 tab

-------------------------------------------------------------------------------
			     Ghostship I - The Fall of Troy
-------------------------------------------------------------------------------
Tabbed by: Kawasaki377
Email: fender377@gmail.com

Tuning: Standard

Bass Part for Guitar
e|------------------------------------|
B|------------------------------------|
G|------------------------------------|
D|------------------------------------| x4
A|---0-3----0-3----0-3----------------|
E|-5------5------5-----4--------------|

Intro
e|-------------------------------------------------------------------------|
B|-8-----------------------------------------------------------------------|
G|---/9~----7-9-9b10r9-7-9-------------------------------------------------|
D|-------------------------7-7~---7-7-7/9-7-5-7----------------------------|
A|----------------------------------------------7-7---7-7-8-7-5-7----------|
E|----------------------------------------------------------------5--------|

e|-------------------------------------------------------------------------|
B|-------------------------------------------------------------------------|
G|-9-9-9-9-9-9-7-7-7-7-7-7-10-10-10-10-10-10-9-9-9-9-9-9-------------------|
D|-------------------------------------------------------------------------|
A|-------------------------------------------------------------------------|
E|-------------------------------------------------------------------------|

e|-------------------------------------------------------------------------|
B|-------------------------------------------------------------------------|
G|-9-9-9-9-9-9-7-7-7-7-7-7-10-10-10-10-10-10-12-12-12-12-12-12-------------|
D|-------------------------------------------------------------------------|
A|-------------------------------------------------------------7-----------|
E|-------------------------------------------------------------5-----------|
                                                               Let Ring

e|-----------------------------|
B|-----------------------------|
G|--5-----5---5--5--5----------|
D|--7-----7---7--7--6----------| x4
A|--7-----7---7--7--7----------|
E|-----------------------------|


e|-15~----15-15-15-17-17-17-17-17-17-19-19-19-19-19-19-20-20-20-20-20-20-----|
B|---------------------------------------------------------------------------|
G|---------------------------------------------------------------------------|
D|---------------------------------------------------------------------------|
A|---------------------------------------------------------------------------|
E|---------------------------------------------------------------------------|

e|-19h20p19-17h19p17-15h17p15-13h15p13p12-12-12-12-12-12-12------------------|
B|---------------------------------------------------------------------------|
G|---------------------------------------------------------------------------|
D|---------------------------------------------------------------------------|
A|---------------------------------------------------------------------------|
E|---------------------------------------------------------------------------|


Chorus
e|--------5------------8-----------5----------------------------|
B|--------5------------12b---------5----------------------------|
G|-5--5-5-5---5--5-5--------5--5-5-5----------------------------|
D|-7--7-7-----7--7-7--------7--7-7------------------------------|
A|-7--7-7-----6--6-6--------7--7-7---X-X-X-X-X-X-X-X------------|
E|-----------------------------------X-X-X-X-X-X-X-X------------|
[ Tab from: http://www.guitaretab.com/t/the-fall-of-troy/75847.html ]
e|--------5------------8----------15-12-15----------------------|
B|--------5------------12b-----------------13-10-9-10-12-13-----|
G|-5--5-5-5---5--5-5--------5--5--------------------------------|
D|-7--7-7-----7--7-7--------7--7--------------------------------|
A|-7--7-7-----6--6-6--------7--7--------------------------------|
E|--------------------------------------------------------------|


e|--------5------------8-----------5----------------------------|
B|--------5------------12b---------5----------------------------|
G|-5--5-5-5---5--5-5--------5--5-5-5----------------------------|
D|-7--7-7-----7--7-7--------7--7-7------------------------------|
A|-7--7-7-----6--6-6--------7--7-7---X-X-X-X-X-X-X-X------------|
E|-----------------------------------X-X-X-X-X-X-X-X------------|


e|--------5------------8----------15-12-15----------------------|
B|--------5------------12b-----------------13-10-12-13-10~------|
G|-5--5-5-5---5--5-5--------5--5--------------------------------|
D|-7--7-7-----7--7-7--------7--7--------------------------------|
A|-7--7-7-----6--6-6--------7--7--------------------------------|
E|--------------------------------------------------------------|

Verse
e|------17p0---15p0--13p0--12p0--10p0------13p0---12p0--10p0---10h12p10p0-----|
B|-----------------10-----10----10-----9-9------9-----9------9----------------|
G|-14-14----14----------------------------------------------------------------|
D|----------------------------------------------------------------------------| x2
A|----------------------------------------------------------------------------|
E|----------------------------------------------------------------------------|

Play Chorus again,
then this little riff.
e|----12-15-17-15-12----12-15-17-15-12---------------------------------------|
B|-15----------------15------------------------------------------------------|
G|---------------------------------------------------------------------------|
D|---------------------------------------------------------------------------|
A|---------------------------------------------------------------------------|
E|---------------------------------------------------------------------------|

Chorus again

Breakdown at 3:30
e|--------------------------------------------------------------------|
B|--------------------------------------------------------------------|
G|-4-5-5-4-5-5-4-5-5-4-5-5--5-7-7-5-7-7-5-7-7-7s9-7-5-----------------|
D|-7-7-7-7-7-7-7-7-7-7-7-7--7-7-7-7-7-7-7-7-7-------------------------|
A|--------------------------------------------------------------------|
E|--------------------------------------------------------------------|

e|--------------------------------------------------------------------|
B|--------------------------------------------------------------------|
G|-4-5-5-4-5-5-4-5-5-4-5-5--5-7-7-5-7-7-5-7-7-7b9---------------------|
D|-7-7-7-7-7-7-7-7-7-7-7-7--7-7-7-7-7-7-7-7-7-------------------------|
A|--------------------------------------------------------------------|
E|--------------------------------------------------------------------|

e|--------------------------------------------------------------------|
B|--------------------------------------------------------------------|
G|-4-5-5-4-5-5-4-5-5-4-5-5--5-7-7-5-7-7-5-7-7-7s9-7-5-----------------|
D|-7-7-7-7-7-7-7-7-7-7-7-7--7-7-7-7-7-7-7-7-7-------------------------|
A|--------------------------------------------------------------------|
E|--------------------------------------------------------------------|

e|--------------------------------------------------------------------|
B|--------------------------------------------------------------------|
G|-4-5-5-4-5-5-4-5-5-4-5-5--5-7-7-5-7-7-5-7-7-7b9---------------------|
D|-7-7-7-7-7-7-7-7-7-7-7-7--7-7-7-7-7-7-7-7-7-------------------------|
A|--------------------------------------------------------------------|
E|--------------------------------------------------------------------|

I might try to figure the rest out later. Just thought Id post what I have.




| /  slide up
| \  slide down
| h  hammer-on
| p  pull-off
| ~  vibrato
| +  harmonic
| x  Mute note
===============================================================================
Related for Ghostship Part 1 tab