Song name
# A B C D E F G H I J K L M N O P Q R S T U V W X Y Z

The Fall Of Troy - Seatlantis tab

-------------------------------------------------------------------------------
			    Seatlantis - The Fall Of Troy
-------------------------------------------------------------------------------
Tabbed by:zack holden
Email:zackdh1992@yahoo.com

Tuning:Band:The Fall Of Troy
Song:Seatlantis
Tab:By Zack Holden
Notes:Just messed around with some stuff and its not 100 percent right and i would like 
corrections [first tab]
h=Hamer on
.=palm mute


e|-----------------------------------------------------|
B|------------3--3-3--------------1h3-1----------------|
G|-3--3-3--3--3--3-3---3--3-3--3--------3h0------------|
D|-1--1-1--1--1--1-1---1--1-1--1-----------------------|
A|-3--3-3--3--3--3-3---1--1-1--1-----------------------|
E|-----------------------------------------------------|
   .  . .  .           .  . .  .
mess around with these \/ not the right rythem
e|----------------------3---------------------------------------------------------------|
B|----------------------3---------------------------------------------------------------|
G|-3-3--3-3--3-3--3-3---1---------------------------------------------------------------|
D|-1-1--1-1--1-1--1-1---3---------------------------------------------------------------|
A|-1-1--1-1--1-1--1-1---1---------------------------------------------------------------|
E|-3-3--3-3--3-3--3-3-------------------------------------------------------------------|
   . .       . .

not right but a start so yeah...the fall of troy is awsome!!!
Tap to rate this tab
# A B C D E F G H I J K L M N O P Q R S T U V W X Y Z